Oops, an error
Loading. Please wait.

Al Final chords

13 views 1 this week
no commentswrite comment
1 2 3 4 5
2 more votes to show rating
add to favorites
×
Save as Personal and add changes to this tab that will be seen only by you. Learn more ›
×
You can save this tab as Personal to edit and correct it or add notes. All changes will be seen only by you. Learn more »
launch autoscroll
font size
0
reset
transpose
0
reset
display chords
guitar tuner
edit
Autoscroll
slow
fast
+/-
esc
set tempo
stop
Strumming
There is no strumming pattern for this song yet. and get +5 IQ
Bueno aca les dejo esta cancion que me encanta?
La parte de la introducción les dejo como la hago yo..
La que hago con una guitarra le pongo un *
Para hacerla con dos guitarras Tamb se las dejo ^^
Puse entre () los golpes porque son rapidos. Si
Escuchan la cancion se van a dar cuenta??
Intro (una guitarra)
(*)Am(x3)   F(x3)      C(x3)    G(x3)
e|-----------------------------------------|
B|-----3-5-------3-5-------3-5------3-0*---|
G|-----5-5-------5-5-------5-5------5-5----|
D|-----------------------------------------|
A|-----------------------------------------|
E|-----------------------------------------|
*0: este si no les suena bien pueden reemplazarlo
Con el casillero 1 de la misma cuerda??

(*)Am(x3)   F(x3)      C(x3)    G golpes repetidos
e|-----------------------------------------|
B|-----3-5-------3-5-------3-5-------------|
G|-----5-5-------5-5-------5-5-------------|
D|-----------------------------------------|
A|-----------------------------------------|
E|-----------------------------------------|

Am - F - C - G
Am - F - G

Si lo hacen con 2 guitarras:
1ra:
   Am(x3)   F(x3)      C(x3)    G(x3)
e|-----------------------------------------|
B|-----1-1-------1-1-------1-1------1-1----|
G|-----0-0-------0-0-------0-0------0-0----|
D|-----------------------------------------|
A|-----------------------------------------|
E|-----------------------------------------|
   Am(x3)   F(x3)      C(x3)  G golpes repeditos
e|-----------------------------------------|
B|-----1-1-------1-1-------1-1-------------|
G|-----0-0-------0-0-------0-0-------------|
D|-----------------------------------------|
A|-----------------------------------------|
E|-----------------------------------------|

2da:
   Am(x3)   F(x3)      C(x3)    G(x3)
e|-----------------------------------------|
B|-----3-5-------3-5-------3-5------3-1----|
G|-----5-5-------5-5-------5-5------0------|
D|-----------------------------------------|
A|-----------------------------------------|
E|-----------------------------------------|


   Am(x3)   F(x3)      C(x3)   G (golpes repetidos)
e|----------------------------------------|
B|-----3-5-------3-5-------3-5------------|
G|-----5-5-------5-5-------5-5------------|
D|----------------------------------------|
A|----------------------------------------|
E|----------------------------------------|


Am - F - C - G
Am - F - G

Empieza a cantar:

F            Am          G
Aquí me encuentro otra vez
      Em               F
sabes que no sé que hacer
             Am            G            Em
perdido en mis problemas mis dilemas sin respuesta
F             Am           G
 pensando en lo que podrá ser
          Em         F             Am           G
si algún día entenderé lo que me falta de aprender

Coro:
           C                G
Pero al final ya nada está mal
              Am            F          C
funciona tu plan al fin respiro al pensar
                     G             Am
que ha mi lado tú estás me levantarás
           F            Am - F - C - G
tu mano segura me ayudará
Am - F - G

F          Am         G
Sé que me vas a responder
          Em             F
ya no me tengo que esconder
                Am    G            Em
sé que en la carrera tengo luz en las tinieblas
F             Am         G             Em         F
 con sólo un poquito de fe, hoy puedo montañas mover
        Am          G
y al final comprenderé

            C                G
//Que al final ya nada está mal
              Am            F          C
funciona tu plan al fin respiro al pensar
                     G             Am
que ha mi lado tú estás me levantarás
           F
tu mano segura me ayudará//

          C                G
Que al final ya nada está mal
              Am            F          C
funciona tu plan al fin respiro al pensar
                     G             Am
que ha mi lado tú estás me levantarás
           F            C
tu mano segura me ayudará?

F  Am  C  G
Ooooooooooh
F Am Em G
Ooooooooooh
F Am C G
Ooooooooooh
F Am G
ooooooooooh

solo: F - Am - C - G
      F - Am - Em - G
      F - Am - C - G
      F - Am - G

Coro:
          C                G
//Que al final ya nada está mal
              Am            F          C
funciona tu plan al fin respiro al pensar
                     G             Am
que ha mi lado tú estás me levantarás
           F
tu mano segura me ayudará?//

En los ultimos coros el bajo hace estas notas: A-B-C-D-E
Por lo tanto los acordes cambian?no se bien le nueva
estructura pero mas o menos la sucesion seria asi:
Opcion 1: Am - G/b - C - F
Opcion 2: Am - Em  C - G
el outro es igual q la intro..con pequeñas diferencias que
seguro notaran
Asi que queda en duda esa ultima parte para cuando tenga
tiempo y de paso saco el solo ;)
Espero que este todo en orden.. cualquier duda me escriben
al correo ferchuz_gfc@
Que dios los bendiga vale?

            
            
Suggest correction
Creating personal tab
Creating personal tab
You can edit any tab online and save it as your Personal.

You can edit, replace or remove any tab part or add personal notes – all changes will be seen only by you.

Personal tabs can be accessed anytime from any device, even offline.
Learn more »
Give kudos to tab author, rate the tab!
1 2 3 4 5
comments
print report bad tab
guest
Wanna post a correction for this tab? Suggest correction