Oops, an error
Loading. Please wait.

Canción De Amor chords

version 3
version 3

Whole song

4 views 1 this week
no commentswrite comment
1 2 3 4 5
3 more votes to show rating
add to favorites
×
Save as Personal and add changes to this tab that will be seen only by you. Learn more ›
×
You can save this tab as Personal to edit and correct it or add notes. All changes will be seen only by you. Learn more »
launch autoscroll
font size
0
reset
transpose
0
reset
display chords
guitar tuner
edit
Autoscroll
slow
fast
+/-
esc
set tempo
stop
Strumming
There is no strumming pattern for this song yet. and get +5 IQ
(Se inicia con puro Palm Mute)

ESTROFA:

F#              Bb
Ya la musica paró,
       B      C
el concierto terminó;
F#                Bb
sólo estamos tú y yo,
         B      C     B
en el silencio oí tu voz.
                          Bb
Dime lo que tienes que decir,
                        G#
dame lo que tienes para mí,
                               C#
pues todo lo que tengo lo que soy
       C#
en alabanza te lo entrego hoy

INTRO (x2)

   F#                C#                B                       D# D#  C# C#
e|-----------------------------------------------------------|--------------|
B|-----------------------------------------------------------|--------------|
G|-11--11-11-11--10--11--11-11-11--10--11--11-11-11-10-11-11-|-15-15--13-13-|
D|-----------------------------------------------------------|--------------|
A|-9---9--9--9---8---9---9--9--9---8---9---9--9--9--8--9--9--|-13-13--11-11-|
E|-----------------------------------------------------------|--------------|

ESTROFA:

F#
Ya la musica paró,

el concierto terminó;

sólo estamos tú y yo,

en el silencio oí tu voz.
B                         Bb
Dime lo que tienes que decir,
                        G#
dame lo que tienes para mí,
                               C#
pues todo lo que tengo lo que soy
       C#
en alabanza te lo entrego hoy.

CORO(x2):

  F#    C#              B          D# C#
//Eres más que una canción de amor,
F#     C#           B       D# C#
eres más que mi imaginación,
  B         Bb      G#        F#
y todo lo que tengo te lo debo a ti,
B             C#            D#
tú eres la razon de mi existir//

(arreglo en  "y todo lo que tengo te lo debo a ti")
e|-------------------------------------|
B|-------------------------------------|
G|-10s11-10----------------------------|
D|----------11--9--8-8--8-9s11--9--8-8-|
A|-------------------------------------|
E|-------------------------------------| (x2)

PUENTE (x2): F#  C#  B

El bajo va así:

D|-------11-----11---11-|-----6-----6---6-|-----4-----4---4-----4-----4---4-|
A|-7s9-9----9-9----9----|-4-4---4-4---4---|-2-2---2-2---2---2-2---2-2---2---|
E|----------------------|-----------------|---------------------------------|

PRE-SOLO:

(F#  C#  B , B-B-B-B C#  F#)
                      (x3)
e|-----------------------|------------------------------|
B|--------------------14-|--------------------11-12--11-|
G|-11-11-11-11-11-11--13-|-11-11-11-11-11-11--11-11--11-|
D|-11-11-11-11-11-11-----|-11-11-11-11-11-11------------|
A|-----------------------|------------------------------|

(F#  C#  B , B-B-B , C#-C#-C#)
                      (x3)
e|-----------------------|--------------|
B|--------------------14-|--------------|
G|-11-11-11-11-11-11--13-|-4-4-4--6-6-6-|
D|-11-11-11-11-11-11-----|-4-4-4--6-6-6-|
A|-----------------------|-2-2-2--4-4-4-|

SOLO (misma base de F# C# B D# C#)

e|---------------------------------------------------|-------------|
B|--------------------------14-14--12--11--11h12--11-|-------------|
G|-10s11-10----10s11-10------------------------------|-11-10-11s13-|
D|----------11----------11---------------------------|-------------|
A|---------------------------------------------------|-------------|
E|---------------------------------------------------|-------------|

e|----------------------|-------------------------------------|
B|----------------------|-------14-------14-------14-------14-|
G|--------11--10--11s13-|-14^15----14^15----14^15----14^15----|
D|-8h9h11---------------|-------------------------------------|
A|----------------------|-------------------------------------|
E|----------------------|-------------------------------------|

                                   C#(x8)  B(x8) C#(x8) B(x8) F#(x8)
e|-----------------------------------|-----|----|-----|----|----|
B|-----------------------------------|-----|----|-----|----|----|
G|-13-11-10-11--10h11h10-------------|-----|----|-----|----|----|
D|-----------------------11-9-8-9s11-|--11-|--9-|--11-|--9-|--4-|
A|-----------------------------------|--9--|--9-|--9--|--9-|--4-|
E|-----------------------------------|-----|----|-----|----|--2-|

CORO (x2)

FINAL:

La guitarra rÍtmica hace la misma base (F# C# B D# C#) y
la eléctrica hace el siguiente tapping:


   T    T    T  T  T    T    T    T    T    T
e|-----------------------------------------------|
B|-----------------------------------------------|
G|-11-6-13-6-15s16s15-6-13-6-11-6-10-6-11-6-10-6-|  [x8]
D|-----------------------------------------------|
A|-----------------------------------------------|
E|-----------------------------------------------|

(Para más fácil, simplemente se deja la mano izquierda pisando el traste 6
de la cuerda G y con el dedo medio de la mano derecha se pisan las notas
con la letra T encima)

----------------------------------------

Cualquier duda, sugerencia o aclaración, por favor agreguen mi msn:

saviour_king@

            
            
Suggest correction
Creating personal tab
Creating personal tab
You can edit any tab online and save it as your Personal.

You can edit, replace or remove any tab part or add personal notes – all changes will be seen only by you.

Personal tabs can be accessed anytime from any device, even offline.
Learn more »
Give kudos to tab author, rate the tab!
1 2 3 4 5
comments
print report bad tab
guest
Wanna post a correction for this tab? Suggest correction