Oops, an error
Loading. Please wait.

Como Se Llama chords

22 views 3 this week
no commentswrite comment
1 2 3 4 5
3 more votes to show rating
add to favorites
×
Save as Personal and add changes to this tab that will be seen only by you. Learn more ›
×
You can save this tab as Personal to edit and correct it or add notes. All changes will be seen only by you. Learn more »
launch autoscroll
font size
0
reset
transpose
0
reset
display chords
guitar tuner
edit
Autoscroll
slow
fast
+/-
esc
set tempo
stop
Strumming
There is no strumming pattern for this song yet. and get +5 IQ
intro

//Am Am Am Am F F C G//

el arreglo que hace la guitarra mientras
va cantando Onis es asi, aunque tal vez son mas 14´s jajajaja

e-----------------------------------
b-----------------------------------
g--14-14-14-14-14-14-14-14-14-14-14-
d-----------------------------------
a-----------------------------------
e-----------------------------------

I ESTROFA

Am                  F  G
caminaba a mil por hora
Am                    F  G
hundido ed desesperación
Am           F  G
cada dia empeora
Am                F  G
fue su vida su valooor

CORO
         Am        F     C        G
pero hay alguien que te puede salvar
     Am       F       C         G
solo abre tu corazón dejalo entrar
       Am        F      C       G
si hay alguien que te puede salvar
      Am    F     G
y su nombre es jesus

II ESTROFA

Am                   F   G
ande perdido en la droga
Am                  F  G
escondido en un rincón
Am           F   G
cada dia empeora
Am                F  G
no encuentro solución

Am F C G Am F C G

CORO

    Am        F     C        G
pero hay alguien que te puede salvar
     Am       F       C         G
solo abre tu corazón dejalo entrar
       Am        F      C       G
si hay alguien que te puede salvar
      Am    F     G
y su nombre es jesus

en el solo los acordes que acompañan son el mismo circulo
debes ir haciendo Am F C G e ir dando circulos hasta que
acabe el solo, el solo me lo se pero es complejo
hacerlo en esta tablatura despues lo mando

despues vuelve el coro de nuevo

  Am        F     C        G
pero hay alguien que te puede salvar
     Am       F       C         G
solo abre tu corazón dejalo entrar
       Am        F      C       G
si hay alguien que te puede salvar
      Am    F     G
y su nombre es jesus
      F     C     G
y su nombre es jesus
      F     C     G
y su nombre es jesus

para acabar hace un arreglo que es así

e----------------------------------------------------
b----------------------------------------------------
g----------------------------------------------------
d------------------------------------------3-5-------
a-----5-7---5-7---5-7---5-7---1-3---1-3-3-5------3-5-
e--5-7---5-7---5-7---5-7---1-3---1-3----------3-5----

e------------------------------------------------------------
b------------------------------------------------------------
g------------------------------------------------------------
d------------------------------------------3-5---------------
a-----5-7---5-7---5-7---5-7---1-3---1-3-3-5------3-5-3-5-3-5-
e--5-7---5-7---5-7---5-7---1-3---1-3----------3-5------------

listo eso es todo con un poco de practica les aseguro que la
podran sacar, saludos a la gente de mi iglesia el portico
de salomon ojala les guste y que sigan apoyando a los
artistas cristianos gracias chao.

            
            
Suggest correction
Creating personal tab
Creating personal tab
You can edit any tab online and save it as your Personal.

You can edit, replace or remove any tab part or add personal notes – all changes will be seen only by you.

Personal tabs can be accessed anytime from any device, even offline.
Learn more »
Give kudos to tab author, rate the tab!
1 2 3 4 5
comments
print report bad tab
guest
Wanna post a correction for this tab? Suggest correction