Oops, an error
Loading. Please wait.

Enamorado tab

10 views 1 this week
no commentswrite comment
1 2 3 4 5
3 more votes to show rating
add to favorites
×
Save as Personal and add changes to this tab that will be seen only by you. Learn more ›
×
You can save this tab as Personal to edit and correct it or add notes. All changes will be seen only by you. Learn more »
launch autoscroll
font size
0
reset
how to read this tab
guitar tuner
edit
Autoscroll
slow
fast
+/-
esc
set tempo
stop
En Esta canción? al parecer la guitarra esta afinada a un
tono debajo de la afinación estándar? esto es seria asi:
D|------|
A|------|
F|------|
C|------|
G|------|
D|------|
Ese es mi oído???? no sé el de ustedes, a mi me suena mejor asi.
Cualquier  cosa notifikenmelo a mi mail se los dejo al final de
la página.

Intro       -       x4
     A                                            D
C|------------------------------------------------------||
G|---7---7---7---7---7---7---7---7---7---7--------2-----||
D|---6---7---6---7---6---7---6---7---6---7--------0-----||

1ra Estrofa
     A                                                   F#  E
C|---4----4-----4--4--4-----4--4--4-----4---4--------------------|
G|---2----2-----2--2--2-----2--2--2-----2---2------------6---4---|
D|-------------------------------------------------------4---2---|
 Me levanto en la mañana estoy pensando en ti

     A                                                   F#  E
C|---4----4-----4--4--4-----4--4--4-----4---4--------------------|
G|---2----2-----2--2--2-----2--2--2-----2---2------------6---4---|
D|-------------------------------------------------------4---2---|
 Discutiendo en mi mente como voy a vestir

Pre- coro
       A              E        F#         D
C|-----4-4-4--4-4-4-4---------------------------------|
G|-----2-2-2--2-2-2-2-4-4--4-4-6--6-6-6-6-2-2-2-2-----|
D|--------------------2-2--2-2-4--4-4-4-4-0-0-0-0-----|
Solo quiero estar contigo quiero darte   mi cariño

  D           F#          E       D
C|----------------------------------------------|
G|---2------2-6-6-6-6-6-6-4-4-4-4-2-------------|
D|---0------0-4-4-4-4-4-4-2-2-2-2-0-------------|
        y que el mundo sepa que yo?

Coro
                   A             F#    E   D        E
C|-----------------4---4---4-----------------------------------|
G|-----------------2---2---2-----6-6---4---2--------4--4--4----|
D|-------------------------------4-4---2---0--------2--2--2----|
Estoy enamorado

                        A             F#    E   D        E
C|----------------------4---4---4-----------------------------------|
G|----------------------2---2---2-----6-6---4---2--------4--4--4----|
D|------------------------------------4-4---2---0--------2--2--2----|
Estoy desesperado por estar junto a ti

                        A             F#    E   D
C|----------------------4---4---4---------------------|
G|----------------------2---2---2-----6-6---4---2-----|
D|------------------------------------4-4---2---0-----|
Me tienes loco, entregado

             D            E
C|-----------------------------------|
G|------------------------4--4--4----|
D|------------------------2--2--2----|
En la palma de tu mano

     F#           E        D
C|---------------------------------------|
G|---2-----------4--4------2-------------|
D|---4-----------2--2------0-------------|
 Y siempre voy a vivir
      D      E
C|-------------------------------------|
G|-----------4-------------------------|
D|-----------2-------------------------|
Enamorado de ti

 (No hay variación en el Intro, ni en la estrofa, ni en el coro.
A continuación les dejo solo los acordes? ritmo y melodía son
iguales, también, a los anteriores? =D)

Intro       -       x4

2estrofa

A                                          F#   E
Caminando a tu lado Pensando en que decir
A                                      F#   E
Atesoro los momentos Que te hago reír

Pre-coro
      A                 E         F#          D
Solo quiero estar contigo quiero darte   mi cariño
D        F#        E       D
y que el mundo sepa que yo?


Coro

                 A  F# E D E
Estoy enamorado

                   A            F#     E  D  E
Estoy desesperado por estar junto a ti

             A         F#
Me tienes loco, entregado

             D           E
En la palma de tu mano

    F#         E        D
Y siempre voy a vivir

  D          E
Enamorado de ti

Solo
(Aquí el solo es algo parecido? no sé si te ?igualito?
XP pero suena? mmm? más o menos =D pero se los dejo a su oído.
si hay alguna falla? xfa comuníquenmelo al e-mail ke dejo
al final de la pagina? =D)
       F#               E            A        D
D|---2s7---6--7-----------------------------------------|
A|------------------9---7--8-7--7---12-12-----5--7--5-5-|
       F#            E
A|-----8--10--8--10--8--9--8--9----|


     F#            E                        A
D|---7---6---7------------------11----------14--14-|
A|-----------------9-----7--8---------12-----------|
F|-------------------------------------------------|
       D             F#           E
A|-----5--7--5-5-----10------10------7------7------|
F|-----------------------9--------9------9---------|


Cambio
Primero un pekeño punteo con la guitara y luego enpiesa la voz
     A                    F#       E
D|---------11--12--14--12---12--11--9--11---|
     A               F#      E       A
D|---11--12--14--12--12--11--9--7--------|


A               F#      E    A
  No quiero estar Con nadie más

            F#      E       A
En mi corazón siempre estarás

             F#  E      D      E
Nadie tomara    tu   lugar  jamás

                          F# E  D
Porque estoy enamorado

        E       A             F#   E   D E
Estoy desesperado por estar junto a ti

            A        F#   E    D
Me tienes loco, entregado

             D          E
En la palma de tu mano

    F#           E    D
Y siempre voy a vivir

  D          E
Enamorado de ti

FINAL
||A      F#     E    D     E||      F#     E      D      E

Esto es todo?. Espero ke kede bien!! Me costo un poko!! =P
Ojala les guste la letra es demasiado kul!!
Weno ke Dios les bendiga? cualquier kosa les dejo mi mail:
Albert_And_His_Guitar@
Buskenme en facebook ahí les hablare mejor!! =D
Gracias!!
Good bless you!!

            
            
Suggest correction
Creating personal tab
Creating personal tab
You can edit any tab online and save it as your Personal.

You can edit, replace or remove any tab part or add personal notes – all changes will be seen only by you.

Personal tabs can be accessed anytime from any device, even offline.
Learn more »
Give kudos to tab author, rate the tab!
1 2 3 4 5
comments
print report bad tab
guest
Wanna post a correction for this tab? Suggest correction