Oops, an error
Loading. Please wait.

Ojos Vendados tab

10 views 1 this week
no commentswrite comment
1 2 3 4 5
3 more votes to show rating
add to favorites
×
Save as Personal and add changes to this tab that will be seen only by you. Learn more ›
×
You can save this tab as Personal to edit and correct it or add notes. All changes will be seen only by you. Learn more »
launch autoscroll
font size
0
reset
how to read this tab
guitar tuner
edit
Autoscroll
slow
fast
+/-
esc
set tempo
stop
Bueno aca les dejo esta cancion que realmente me encanta
aclaracion: las notas que al lado les puse un parentesis con
un numero son porque es preferible que se las haga en el numero
de esa casilla por ejemplo si hacemos el Dm(5) hacemos Dm con cejilla
en la casilla numero 5.
Puse las notas asi porque esta cancion en realidad se toca con capo
(hasta donde yo se)...
y lo mas parecido a las notas serian las que les puse ahi, no obstante
pueden tocarla con las notas base o comunes suena bien igual (en ese
caso cambien el Dm/E por F y en la posicion del F(5) ponen el Bb y
mantienen)Les deje al final como hacer los acordes...
Cualquier sugerencia o comentariome la mandan mi mail es
ferchuz_gfc@

Sin mas que decir..que Dios los bendiga mucho


Dm7(5)    Dm/E     F(5)            Bb(6)
    Oí tu voz susurrando a mi corazón
        Dm7(5)           C(8)     Bb(6)
En el momento que menos lo esperaba
       Dm7(5)        Dm7/E
Y sutilmente me recordaste
        F(5)            Bb(6)
de las veces que me salvaste
          Dm7(5)   C(8)     F(5)
Cuando creía no tener mañana

Bb(6)                Dm(5)
    Sin ganas de seguir
   C(8)         Bb(6)
Estaba cuando me encontraste
        Dm7(5)          Bb(6)
Y me sacaste de mi infierno

Coro:
F(5)                 Bb(6)
 Con mi dos ojos vendados
             F(5)
Corro hacia ti
                      Bb(6)
Y con mis dos manos en alto
               Dm7(5)
Confío yo en ti
            C(8)           Bb(6)
Y cuando este el cielo nublado
                    Dm7(5)
Se que sigues a mi lado
      C(8)           Bb(6)(lo deja suspendido)
recordándome que un día el sol
              Dm7(5)-Dm/E-F(5)
volverá a salir
Bb(6)           Dm7(5)-Dm/E-Bb(6)
  volverá a salir
(en la parte anterior la otra guitarra
hace un riff en la sucesión de esos acordes
que es mas o menos asi:)

     Dm7(5)          Dm7/E
e|-------------------------------------------------|
B|-------11----11-10-------------------------------|
G|-9h10-----10-------10----10-12-------------------|
D|----------------------10-------------------------|
A|-------------------------------------------------|
E|-------------------------------------------------|
       F(5)                   Bb(6)
e|-------------------------------------------------|
B|-------11----11-10-------------------------------|
G|-9h10-----10-------10----10----10h12-------------|
D|----------------------10----10-------------------|
A|-------------------------------------------------|
E|-------------------------------------------------|
                            Volvera a

e|-------------------------------------------------|
B|-------11----11-10-------------------------------|
G|-9h10-----10-------10----10----10h12-------------|
D|----------------------10----10-------------------|
A|-------------------------------------------------|
    Saliiiir yeeeahh

  Bb(6)
e|----------------------8-------------------------|
B|-------------------10---10-8--------------------|
G|-10----10-12----12------------------------------|
D|----10-------10---------------------------------|
A|------------------------------------------------|


Dm7(5)   Dm7/E       F(5)         Bb(6)
  Oí tu voz en medio de mi situación
          Dm7         C(8)    Bb(6)
Cuando creía que no quedaba nada
           Dm7(5)         Dm/E
Y me encontraste en el desierto
           F(5)          Bb(6)
Estaba perdido y sin aliento
          Dm7(5)      C(8)   F(5)
Y me ofreciste un nuevo mañana

Bb(6)                Dm(5)
    Sin ganas de seguir
   C(8)         Bb(6)
Estaba cuando me encontraste
        Dm7(5)         Bb(6)
Y me sacaste de mi infierno

(En esta parte la 2da guitarra tambien
hace un riff que seria algo asi:)

 Bb(6)
e|------8-------8------8-----------------------|
B|-----------------------11-10-8h10------------|
G|-9h10---9h10----9h10-------------------------|
D|---------------------------------------------|
A|---------------------------------------------|

  Dm7(5)          C(8)
e|------8-------8------8-----------------------|
B|-----------------------11-10-8h10------------|
G|-9h10---9h10----9h10-------------------------|
D|---------------------------------------------|
A|---------------------------------------------|

  Bb(6)
e|------8-------8------8-----------------------|
B|-----------------------11-10-8h10------------|
G|-9h10---9h10----9h10-------------------------|
D|---------------------------------------------|
A|---------------------------------------------|


Dm7(5)             Bb(6)
e|------8-------8-----13----13----13----13-------|
B|--------------------13----13----13-------------|
G|-9h10---9h10----10-----10----10----10----------|
D|-----------------------------------------------|
A|-----------------------------------------------|

Coro:
F(5)                 Bb(6)
 Con mi dos ojos vendados
             F(5)
Corro hacia ti
                      Bb(6)
Y con mis dos manos en alto
               Dm7(5)
Confío yo en ti
            C(8)           Bb(6)
Y cuando este el cielo nublado
                    Dm7(5)
Se que sigues a mi lado
      C(8)           Bb(6)(lo deja suspendido)
recordándome que un día el sol
              F Bb
volverá a salir
              F Bb C
volverá a salir

(en toda esta parte desde volvera a salir hay
un pequeño riff en F que hace la otra guitarra)
algo asi:

e|--------------------------------|
B|--------------------------------|
G|----2-0-2-----2-0-2-------------|
D|-2h3-3---3-2h3-3---3------------|
A|--------------------------------|
E|--------------------------------|

e|--------------------------------|
B|--------------------------------|
G|----2-0-2-5-2--0-2--------------|
D|-2h3-3---3---3----3-------------|
A|--------------------------------|
E|--------------------------------|

en el primer "dime una vez mas" en ese riff
en vez de empezar 2h3 empieza con la cuerda
D al aire como acentuando el Dm..
luego sigue igual


Dm7(5) Bb(6)   F(5)
Dime una vez más
         C(3)      Dm(5)
Lo que quiero escuchar
        Bb(6)       F(5)
Que conmigo vas a estar
      C(3)          Dm(5)x5 C(3) F(5)x5 C(8)Bb(6)
Y no te vas a apartar
                 Dm(5)x5 C(3) F(5)x5 C(8)Bb(6)
No te vas a apartar

e|------8--8--8-------------------|
B|--5h6--6--6---------------------|
G|--------------------------------|
D|--------------------------------|
A|--------------------------------|
E|--------------------------------|


Coro:
F(5)                 Bb(6)
 Con mi dos ojos vendados
             F(5)
Corro hacia ti
                      Bb(6)
Y con mis dos manos en alto
              Dm7(5)
Confío yo en ti
            C(8)           Bb(6)
Y cuando este el cielo nublado
                    Dm7(5)
Se que sigues a mi lado
      C(8)           Bb(6)(lo deja suspendido)
recordándome que un día el sol
             Dm(5)x5 C(3) F(5)x5 C(8)Bb(6)
volverá a salir
              Dm(5)x5 C(3) F(5)x5 C(8)Bb(6)
volverá a salir


Aqui le dejo las notas:

  Dm7(5)  Dm/E   F(5)   Bb(6)  C(8)    C(3)
e  5      5      5      6      8        3
B  6      6      6      6      8        3
G  7      7      5      7      9        5
D  7      5      7      8      10       5
A  5      7      8      8      10       3
E  5      5      5      6      8        3


El riff del puente (Dime una vez mas..) lo voy a anotar bien
junto con los otros (incluyendo el del coro final) en otra tablatura
sino se iba a hacer muy largo jeje :D
y esa es toda la cancion

PD: Deje un video en youtube con los arreglos =)!
ahi el link 
y esta es la cancion como me suena con esos acordes


SALUDOS!

            
            
Suggest correction
Creating personal tab
Creating personal tab
You can edit any tab online and save it as your Personal.

You can edit, replace or remove any tab part or add personal notes – all changes will be seen only by you.

Personal tabs can be accessed anytime from any device, even offline.
Learn more »
Give kudos to tab author, rate the tab!
1 2 3 4 5
comments
print report bad tab
guest
Wanna post a correction for this tab? Suggest correction