Oops, an error
Loading. Please wait.

Otra Oportunidad bass

7 views 1 this week
no commentswrite comment
1 2 3 4 5
3 more votes to show rating
add to favorites
×
Save as Personal and add changes to this tab that will be seen only by you. Learn more ›
×
You can save this tab as Personal to edit and correct it or add notes. All changes will be seen only by you. Learn more »
launch autoscroll
font size
0
reset
guitar tuner
edit
Autoscroll
slow
fast
+/-
esc
set tempo
stop
g---------------------------------------------
d---------------------------------------------
a--2-2-2-2-2--4-4-4-4-4-----------------------
E------------------------4-4-4-4-4--0-0-0-0-0-

(Coro)
cuantas veses se le de al bombo se repite la nota correspondiente
g------------
d------------
a--2---------
E-----0--4--0

----------------------------------------------

Aller paso aller murio
Un nuevo dia sera mejor

Lo q susedio ya es historia
El futuro trae el perdon

Aunq es dificil olvidar
Los herrores estan atras

Mira siempre adelante
Y a la meta llegaras

(Coro)
Mira mis ojos y veras
Q a tu lado voy ha estar
Mira hasia el cielo y encontraras
Q tienes otra oportunidad

Pruevas vienen pruevas van
Se q nunca acabaran

Solo tienes q luchar
y la vatalla ganaras

Y si vuelves a fallar
El te puede lebantar

Solo abre tu corazon
Y tu mundo cambiara

(Coro)
Mira mis ojos y veras
Q a tu lado voy ha estar
Mira hasia el cielo y encontraras
Q tienes otra oportunidad
(Bis)

(Solo)

g------------------------------------------------------------------
d------4-4-2-2-1-1-----4-4-2-2-1-1-----4-4-2-2-1-1-----4-4-2-2-1-1-
a--2-2-------------4-4---------------------------------------------
E----------------------------------4-4-------------0-0-------------

(Coro)
Mira mis ojos y veras
Q a tu lado voy ha estar
Mira hasia el cielo y encontraras
Q tienes otra oportunidad
(Bis)
Suggest correction
Creating personal tab
Creating personal tab
You can edit any tab online and save it as your Personal.

You can edit, replace or remove any tab part or add personal notes – all changes will be seen only by you.

Personal tabs can be accessed anytime from any device, even offline.
Learn more »
Give kudos to tab author, rate the tab!
1 2 3 4 5
comments
print report bad tab
guest
Wanna post a correction for this tab? Suggest correction