Oops, an error
Loading. Please wait.

Qué Será chords

version 1
version 1

Whole song

28 views 1 this week
no commentswrite comment
1 2 3 4 5
3 more votes to show rating
add to favorites
×
Save as Personal and add changes to this tab that will be seen only by you. Learn more ›
×
You can save this tab as Personal to edit and correct it or add notes. All changes will be seen only by you. Learn more »
launch autoscroll
font size
0
reset
transpose
0
reset
display chords
guitar tuner
edit
Autoscroll
slow
fast
+/-
esc
set tempo
stop
Strumming
There is no strumming pattern for this song yet. and get +5 IQ
(Recomiendo tocar el La una octava por arriba.)

Intro: D Bm G D A D A


       D       A             D
Pueblo mio que estas en la colina
   G            A            D
te envio como un viejo que se muere
   G            A
la pena y el avadono
       D          Bm
son tu triste compañia
       G        A           D          A
pueblo mio te dejo sin alegria.
       D       A             D
Y a mis amigos se fueron casi todos
   G            A             D
y los otros partiran despues que yo
   G             A
lo siento porque amaba
       D          Bm
su agradable compañia
   G            A            D         A
asi es mi vida y tengo que marchar.


      D        Bm       A
Que sera que sera que sera
      G        A        D
que sera de mi vida que sera
      G             A
si se mucho o no se nada
     D    A   Bm
ya mañana se vera
    G    A         D
y sera sera lo que sera.

Intro: D Bm G D A D A

      D       A          D
Amor mio me llevo tu sonrisa
      G           A         D
que fue la fuente de mi amor primero
  G            A
amor te lo prometo
      D            Bm
como y cuando no lo se
      G     A             D
mas se tan solo que regresare.


      D        Bm       A
Que sera que sera que sera
      G         A         D
que sera en mi vida que sera
       G           A
en la noche mi guitarra
      D   A   Bm
dulcemente sonara
       G          A         D
y una niña de mi pueblo llorara.

SOLO:

E|---------------------------------------------------------------------------------------
B|----------------------------------------12-14-12-------------------12------------------
G|---13-11----11-13-11--------------11-13----------13-11----------11----13-13------------
D|---------14----------14-11-14--14----------------------14-11-14------------------------
A|---------------------------------------------------------------------------------------
E|---------------------------------------------------------------------------------------


E|----------12-12----12-14-12-14-16-16-14-14-12-12-------------12-14-12-16-19-19-19------
B|-12-14-12-------14-------------------------------10/11/12-14---------------------------
G|---------------------------------------------------------------------------------------
D|---------------------------------------------------------------------------------------
A|---------------------------------------------------------------------------------------
E|---------------------------------------------------------------------------------------


E|-------------12-14-12-16-19-19-19--22-21-21-21-21-19-16-17-16-16-16-14-14-14-12-12-12--
B|-10/11/12-14---------------------------------------------------------------------------
G|---------------------------------------------------------------------------------------
D|---------------------------------------------------------------------------------------
A|---------------------------------------------------------------------------------------
E|---------------------------------------------------------------------------------------

      A         B         E
Que sera de mi vida que sera              ||
         A           B                    ||
y en la noche mi guitarra                 ||
      E   B   C#m                         ||
dulcemente sonara                         ||
       A           B        E             ||
y una niña de mi pueblo llorara.          ||           EN ESTA ULTIMA PARTE TODOS

                                                       LOS ACORDES SEÑALADOS SE TOCAN
      E        B       C#m                ||
Que sera que sera que sera                ||           UNA OCTAVA POR ARRIBA.
      A         B         E               ||
que sera de mi vida que sera              ||
       A           B                      ||
en A noche E guitarra                   ||
      E   B   C#m                         ||
dulcemente sonara                         ||
       A           B        E             ||
y una niña de mi pueblo llorara aaaH      ||
       A           B        E             ||
y una niña de mi pueblo llorara.          ||


Bueno bueno, aqui va mi segunda colaboración,
espero que guste. El punteo no es perfecto
pero por lo menos por hay van los tiros
Bueno dudo que haya dudas asi que nada mas.

Como no, dedicarsela a Marta, te quiero mi niña!.
Y bueno a todos los demas que me conocen tambien
y siguiendo la recomendacion
de una amiga tambien me la dedico a mi mismo.

NO AL MALTRATO DE LOS GNOMOS, ELLOS NO LO HARIAN CONTIGO.
SALVEMOS A LOS GNOMOS!.

            
            
Suggest correction
Creating personal tab
Creating personal tab
You can edit any tab online and save it as your Personal.

You can edit, replace or remove any tab part or add personal notes – all changes will be seen only by you.

Personal tabs can be accessed anytime from any device, even offline.
Learn more »
Give kudos to tab author, rate the tab!
1 2 3 4 5
comments
print report bad tab
guest
Wanna post a correction for this tab? Suggest correction