Oops, an error
Loading. Please wait.

Cada Día tab

10 views 1 this week
no commentswrite comment
1 2 3 4 5
3 more votes to show rating
add to favorites
×
Save as Personal and add changes to this tab that will be seen only by you. Learn more ›
×
You can save this tab as Personal to edit and correct it or add notes. All changes will be seen only by you. Learn more »
launch autoscroll
font size
0
reset
how to read this tab
guitar tuner
edit
Autoscroll
slow
fast
+/-
esc
set tempo
stop
s=slide

  G#    D#    Cm    C#
e-4-------6---3-------4------------
b---4-------8---4-------6----------
g-----5s8---------5s6--------------
d----------------------------------
a----------------------------------
e---------------------------------- x2


aqui entran los vientos y la guitarra hace los acordes G# D# Cm C# en ritmo
reggae aca les dejo lo ke hace los vientos

e------------------------------------
b------------------------------------
g-13-13-13-13-15-17-15-13-12-11------
d-------------------------------13---
a------------------------------------
e------------------------------------

e----------------------------------16-15-------------
b-------------------------16-16-16-------16-13-14-13-
g-13-13-13-13-15-17-15-13----------------------------
d----------------------------------------------------
a----------------------------------------------------
e----------------------------------------------------

primera estrofa sigue con los mismos acordes en ritmo reggae

G# D# Cm C#

me encantaria decirte ke mi corazon sera para ti
y ke el pasar de los dias no matara esto ke siento aki
muy adentro sepultado en mi pecho
sin esperanzas vos sabes ke estoy desecho
kiero ke sepas muy bn keee

coro

G# D# Cm C#

cada dia te amo mas nonono
y eske cada dia te amo mas ooo si
ya no kiero vivir sin ti


aka vuelven a entrar los vientos pero esta vez se hacen los acordes
G#5 D#5 C5 C#5 con distorsion

la segunda estrofa se hace el arpegio del principio
mientras otra guitarra hace los acordes G# D# Cm C#
en ritmo reggae

luego entra el 2 coro con los acordes G# D# Cm C#

luego hay como un puente ke dice asi

F5* D#5        G#5       C#
      nononono no lo podria soportar
F5* D#5         G#5         C#
      otro dia sin ti amor en la oscuridad
F5* D#5     G#5       C#
      nononono ya no puedo vivir asi
F5* D#5         G#5         C#
      otro dia sin ti amor en la oscuridad


lluego siguen los acordes G#5 D#5 C5 C#5 hasta el final de la cancion


espero la disfruten alguna duda escribanme al msn elsebashc@

            
            
Suggest correction
Creating personal tab
Creating personal tab
You can edit any tab online and save it as your Personal.

You can edit, replace or remove any tab part or add personal notes – all changes will be seen only by you.

Personal tabs can be accessed anytime from any device, even offline.
Learn more »
Give kudos to tab author, rate the tab!
1 2 3 4 5
comments
print report bad tab
guest
Wanna post a correction for this tab? Suggest correction