Oops, an error
Loading. Please wait.

Cansado tab

31 views 1 this week
no commentswrite comment
1 2 3 4 5
3 more votes to show rating
add to favorites
×
Save as Personal and add changes to this tab that will be seen only by you. Learn more ›
×
You can save this tab as Personal to edit and correct it or add notes. All changes will be seen only by you. Learn more »
launch autoscroll
font size
0
reset
how to read this tab
guitar tuner
edit
Autoscroll
slow
fast
+/-
esc
set tempo
stop
Para que los acordes suenen como los del principio
Solo toquen las primeras tres cuerdas

A#

A#       Gm
Nunca supimos entender
A#m    Fm   D#  D    A#
 Que todo tiene su final
     F
Everyday and every night


A#
 E tratado de ser
         Gm
Lo suficientemente cruel
        A#m    Fm    D#  D
Para dejarte una vez más
           A#     F
Que todo vuelva a comenzar


A#     F        G#
 Todo,  Se termino
         Cm
El sueño acabo
        A#              F        G#  Cm
Y tus palabras desangraron mi corazón
A#     F              G#
 Dime,  que puedo esperar de ti
      Cm
Acaso no te das cuenta
A#             F          Gm Cm
 Que estoy cansado de esperar


A#
 Nada que decir
           G#
Enmudeces así

Dime lo que quiero escuchar
A#m    Fm    D#      D    A#
 Cualquier cosa estaria bien
      Fm
Tan solo comienza a hablar

Gm
 Y no se que pensar
F
 Tu silencio condena
D#
 A esperar Otra vez
Cm
 tus palabras se van
Gm                  Fm
 y se pierde el veneno
              D#
 en este espiral
            Cm
me quedo con mi soledad¡¡


A#     F        G#
 Todo,  Se termino
         Cm
El sueño acabo
        A#              F        G#  Cm
Y tus palabras desangraron mi corazón
A#     F              G#
 Dime,  que puedo esperar de ti
      Cm
Acaso no te das cuenta
A#             F          Gm Cm
 Que estoy cansado de esperar

Trompeta
   Cm                            D#
E|-10-------|10-------|10-------|10----13-11-10-|
B|----11-13-|---11-13-|---11-13-|---11----------|
G|----------|---------|---------|---------------|
D|----------|---------|---------|---------------|
A|----------|---------|---------|---------------|
E|----------|---------|---------|---------------|
      Gm          A#
E|-------6-5-|-------8-6-|
B|-----------|-----------|
G|-7-6-7-----|-7-6-7-----|
D|-----------|-----------|
A|-----------|-----------|
E|-----------|-----------|
     Cm            D          Gm                    A#
E|-10-------|-10-------|-------------10-10-|-------------10----10----|
B|----11-13-|----11-13-|-11-11-11-13-------|-11-11-11-13----13----11-|
G|----------|----------|-------------------|-------------------------|
D|----------|----------|-------------------|-------------------------|
A|----------|----------|-------------------|-------------------------|
E|----------|----------|-------------------|-------------------------|

   Cm                            D#
E|-10-------|10-------|10-------|10----13-11-10-|
B|----11-13-|---11-13-|---11-13-|---11----------|
G|----------|---------|---------|---------------|
D|----------|---------|---------|---------------|
A|----------|---------|---------|---------------|
E|----------|---------|---------|---------------|
      Gm          A#
E|-------6-5-|-------8-6-|
B|-----------|-----------|
G|-7-6-7-----|-7-6-7-----|
D|-----------|-----------|
A|-----------|-----------|
E|-----------|-----------|
    Cm                       D#
E|-10-------|-10-------|-------------10/6--|
B|----11-13-|----11-13-|-11-11-11-13-------|
G|----------|----------|-------------------|
D|----------|----------|-------------------|
A|----------|----------|-------------------|
E|----------|----------|-------------------|


A#        Gm
 Nunca supimos entender (nunca supimos entender)
A#m  Fm    D#   D    A#
 Que todo tiene su final (que todo tiene su final)

F

A#     F        G#
 Todo,  Se termino
         Cm
El sueño acabo
        A#              F        G#  Cm
Y tus palabras desangraron mi corazón
A#     F              G#
 Dime,  que puedo esperar de ti
      Cm
Acaso no te das cuenta
Gm             A#m            D#
 Que estoy cansado de extrañarte (que estoy cansado de esperarte)
Gm             A#m        D#
 Que estoy cansado de esperar (que estoy cansado de extrañarte)
Gm             A#m            D#
 Que estoy cansado de extrañarte (que estoy cansado de esperarte)
Gm             A#m        D#
 Que estoy cansado de esperar

A#       Gm         A#m
 Nunca supimos entender


ACORDES
    A#   Gm    A#m   Fm    D#     D     F    Cm
e|--1--|--3--|--6--|--1--|--6--|--5--|--1--|--3--|
B|--3--|--3--|--6--|--1--|--8--|--7--|--1--|--4--|
G|--3--|--3--|--6--|--1--|--8--|--7--|--2--|--5--|
D|--3--|--5--|--8--|--3--|--8--|--7--|--3--|--5--|
A|--1--|--5--|--8--|--3--|--6--|--5--|--3--|--3--|
E|--X--|--3--|--6--|--1--|--x--|--x--|--1--|--3--|

este tema siempre me habia parecido muy bacano
pa la guitarra entonces lo saque ya que no lo vi por aca
si hay dudas o comentarios judacalo2@

            
            
Suggest correction
Creating personal tab
Creating personal tab
You can edit any tab online and save it as your Personal.

You can edit, replace or remove any tab part or add personal notes – all changes will be seen only by you.

Personal tabs can be accessed anytime from any device, even offline.
Learn more »
Give kudos to tab author, rate the tab!
1 2 3 4 5
comments
print report bad tab
guest
Wanna post a correction for this tab? Suggest correction