Oops, an error
Loading. Please wait.

Feeling Down chords

83 views 1 this week
no commentswrite comment
1 2 3 4 5
3 more votes to show rating
add to favorites
×
Save as Personal and add changes to this tab that will be seen only by you. Learn more ›
×
You can save this tab as Personal to edit and correct it or add notes. All changes will be seen only by you. Learn more »
launch autoscroll
font size
0
reset
transpose
0
reset
display chords
guitar tuner
edit
Autoscroll
slow
fast
+/-
esc
set tempo
stop
Strumming
There is no strumming pattern for this song yet. and get +5 IQ
entonces que muchachos esta es mi primera publicacion
si necesitan mas partituras de rey
escribanme a christianwu@ todo bien

INTRO   E  F#m G#m F#m
Primera Parte                     Segunda Parte
E-------------------------2------2------|--------------------------------
B-4-5-4----4-5-4-----------5-4------5-4-|-4-5-4----4-5-4----------2---4-0-
G--------4---------4-4----------------4-|--------4----------4------------3
D---------------------------------------|---------------------4-----------
A---------------------------------------|--------------------------------
E---------------------------------------|--------------------------------

E                         C#m
hace un mes y un poco mas
G#m
te marchastes y  todo sigue
F#m
en el mismo lugar
E                 C#m
y en la oscuridad
G#m                  F#m
solo puedo ver tus ojos
 E                    C#m
duele tanto la verdad
 C#m             G#m       F#m
se que nunca supe actuar
E
el show  debe contInuar
 C#m        G#m       F#m
tendra que continuar sin ti


E            F#m
off feeling so down
G#m             F#m
feeling so down

INTRO   E  F#m G#m F#m
Primera Parte                     Segunda Parte
E-------------------------2------2------|--------------------------------
B-4-5-4----4-5-4-----------5-4------5-4-|-4-5-4----4-5-4----------2---4-0-
G--------4---------4-4----------------4-|--------4----------4------------3
D---------------------------------------|---------------------4-----------
A---------------------------------------|--------------------------------
E---------------------------------------|--------------------------------


E                         C#m
y todo el tiempo intentaste ser tu
G#m               F#m
cada dia rebentamos la verdad
E             C#m
no amanesera
G#m             F#m
prefiero olvidarte
E
te vas
C#m      G#m
es mejor asi muchas tristezas
  F#m
te atan
E
y yo
C#m      G#m      F#m
prefiero estar sin ti

E            F#m
off  feeling so down
G#m             F#m
off  feeling so down

 E  F#m G#m F#m

E            C#m
off  feeling so down
G#m             F#m
off  feeling so down

            
            
Suggest correction
Creating personal tab
Creating personal tab
You can edit any tab online and save it as your Personal.

You can edit, replace or remove any tab part or add personal notes – all changes will be seen only by you.

Personal tabs can be accessed anytime from any device, even offline.
Learn more »
Give kudos to tab author, rate the tab!
1 2 3 4 5
comments
print report bad tab
guest
Wanna post a correction for this tab? Suggest correction