Oops, an error
Loading. Please wait.

Otra Vez tab

8 views 1 this week
no commentswrite comment
1 2 3 4 5
3 more votes to show rating
add to favorites
×
Save as Personal and add changes to this tab that will be seen only by you. Learn more ›
×
You can save this tab as Personal to edit and correct it or add notes. All changes will be seen only by you. Learn more »
launch autoscroll
font size
0
reset
how to read this tab
guitar tuner
edit
Autoscroll
slow
fast
+/-
esc
set tempo
stop
      D5                     A5
Y hay vas otras vez con el pasado
                    B5
peleando por lo que no es tuyo
A5
y nunca lo ha sido
   D5                   A5
Estas orgulloso de mostrar
                B5
una falsa realidad
                A5
donde siempre ganas donde siempre ganas

VIENTOS:
E|-------------------------------------------------------------------|
B|-12-14-15-14-12--------12-14-15-14-12----14--15-14-15-14--12-------|
G|----------------14-15-----------------14---------------------13-14-|
D|-------------------------------------------------------------------|
A|-------------------------------------------------------------------|
E|-------------------------------------------------------------------|

      D5                     A5
Y hay vas otras vez con el pasado
                    B5
peleando por lo que no es tuyo
A5
y nunca lo ha sido
   D5                   A5
Estas orgulloso de mostrar
                B5
una falsa realidad
                A5
donde siempre ganas donde siempre ganas


CORO:
D5
Pasara tiempo para
         A5
que comprendas
                      B5
lo dificil que es lograr
         A5
libertad para hablar

VIENTOS:
E|-------------------------------------------------------------------|
B|-12-14-15-14-12--------12-14-15-14-12----14--15-14-15-14--12-------|
G|----------------14-15-----------------14---------------------13-14-|
D|-------------------------------------------------------------------|
A|-------------------------------------------------------------------|
E|-------------------------------------------------------------------|

SOLO:
E|---------------------------------------------|
B|---------------------------------------------|
G|-9999-7-6--79999-11-9-6-7-6------------------|
D|----------------------------7v--7-9s11-8-7---| X2
A|---------------------------------------------|
E|---------------------------------------------|

              D5
Debes comprender
                  A5
que la cosa no se logra
                 B5
a cosata de los demas
              A5
ni de tu posicion social
   D5                A5
estas condenado a pasar
                     B5
pensado en que inventar
              A5
para no decir la verdad


CORO:
D5
Pasara tiempo para
         A5
que comprendas
                      B5
lo dificil que es lograr
         A5
libertad para hablar

E|-----X-----X-----X-----|
B|-----X-----X-----X-----|
G|-----X-----X-----7-----|
D|-----7-----9-----7-----|
A|-----7-----9-----5-----|
E|-----5-----7-----X-----|
       A5    B5    D5

            
            
Suggest correction
Creating personal tab
Creating personal tab
You can edit any tab online and save it as your Personal.

You can edit, replace or remove any tab part or add personal notes – all changes will be seen only by you.

Personal tabs can be accessed anytime from any device, even offline.
Learn more »
Give kudos to tab author, rate the tab!
1 2 3 4 5
comments
print report bad tab
guest
Wanna post a correction for this tab? Suggest correction