Oops, an error
Loading. Please wait.

Principio/fín tab

29 views 1 this week
no commentswrite comment
1 2 3 4 5
3 more votes to show rating
add to favorites
×
Save as Personal and add changes to this tab that will be seen only by you. Learn more ›
×
You can save this tab as Personal to edit and correct it or add notes. All changes will be seen only by you. Learn more »
launch autoscroll
font size
0
reset
how to read this tab
guitar tuner
edit
Autoscroll
slow
fast
+/-
esc
set tempo
stop
intro

e ---------------------------  |
b -----------------1-----1---  |
g --3-3-3--3-3-0-3--3--3--3--  |esto 4 veces
d -0-0-0--1-1-1-3-3---3-3--3-  |
a ---------------------------  |
e ---------------------------  |

y despues

e ----------------------------
b ------1------1----1---------
g ----3--3--3-3---3--3---3-3--
d -0-1-1---1-1---1-1--1-1-1---
a ----------------------------
e ----------------------------

el tema casi todo es asi

e ---------------------------
b -----------------1-----1---
g --3-3-3--3-3-0-3--3--3--3--
d -0-0-0--1-1-1-3-3---3-3--3-
a ---------------------------
e ---------------------------

sin preguntar, tal ves
todo se vuelve interte y fragil
no encuentras donde escoder
tu ser

sin padecer
tu embrujo de mujer
no hay sentido ni preguntas q responder
ante un mar de espejos rotos
donde todo se bifurca
e --------------------------------
b -----------------1--1-1-1-1-1-1-
g --3-3-3--3-3-0-3--3-3-3-3-3-3-3-
d -0-0-0--1-1-1-3-3---3-3-3-3-3-3--
a --------------------------------
e --------------------------------
                    yo puedo ver

D#5      C5          G5
 diras q todo termino
       A#5
 si aun no a comenzado
D#5      C5              G5
 diras q esto fue un error
         A#5                D#5
me dejaras tirado

*lo mismo del intro

e ---------------------------  |
b -----------------1-----1---  |
g --3-3-3--3-3-0-3--3--3--3--  |esto 4 veces
d -0-0-0--1-1-1-3-3---3-3--3-  |
a ---------------------------  |
e ---------------------------  |

y despues

e ----------------------------
b ------1------1----1---------
g ----3--3--3-3---3--3---3-3--
d -0-1-1---1-1---1-1--1-1-1---
a ----------------------------
e ----------------------------


y vuelve para la estrofa
e ---------------------------
b -----------------1-----1---
g --3-3-3--3-3-0-3--3--3--3--
d -0-0-0--1-1-1-3-3---3-3--3-
a ---------------------------
e ---------------------------

esperare
el dia en q a tu ausencia
se la trague el olvido

no hay q señalar
nadie a quien culpar
tu veneno me condena
una vez
e -------------
b -1-1-1-1-1-1-
g -3-3-3-3-3-3-
d -3-3-3-3-3-3-
a -------------
e -------------
 mas


D#5      C5          G5
 diras q todo termino
       A#5
 si aun no a comenzado
D#5      C5              G5
 diras q esto fue un error
         A#5
me dejaras tirado
(bis)

D#5
A#5

ACORDES
   D#5   C5    G5    A#5
e|--X--|--X--|--X--|--x--|
B|--X--|--X--|--X--|--X--|
G|--8--|--5--|--X--|--X--|
D|--8--|--5--|--5--|--8--|
A|--6--|--3--|--5--|--8--|
E|--X--|--x--|--3--|--6--|

excelente tema
ps dudas
judacalo2@

            
            
Suggest correction
Creating personal tab
Creating personal tab
You can edit any tab online and save it as your Personal.

You can edit, replace or remove any tab part or add personal notes – all changes will be seen only by you.

Personal tabs can be accessed anytime from any device, even offline.
Learn more »
Give kudos to tab author, rate the tab!
1 2 3 4 5
comments
print report bad tab
guest
Wanna post a correction for this tab? Suggest correction