Oops, an error
Loading. Please wait.

Solo Vos tab

20 views 1 this week
no commentswrite comment
1 2 3 4 5
3 more votes to show rating
add to favorites
×
Save as Personal and add changes to this tab that will be seen only by you. Learn more ›
×
You can save this tab as Personal to edit and correct it or add notes. All changes will be seen only by you. Learn more »
launch autoscroll
font size
0
reset
how to read this tab
guitar tuner
edit
Autoscroll
slow
fast
+/-
esc
set tempo
stop
D5

Guitarra
   D5    A5             E5       B5
E|-10-10-12-12-12-12/10-10-10-10-9-10-12-10--|
B|-------------------------------------------|
G|-------------------------------------------| x2
D|-------------------------------------------|
A|-------------------------------------------|
E|-------------------------------------------|

Trompeta
   D5     A5       E5        B5
E|-9--9-10-9---9-10-9---9-10-12-10-9-10------|
B|-------------------------------------------|
G|-------------------------------------------|
D|-------------------------------------------|
A|-------------------------------------------|
E|-------------------------------------------|
   D5     A5       E5 B5
E|-9--9-10-9--9------------------------------|
B|--------------12-10------------------------|
G|-------------------------------------------|
D|-------------------------------------------|
A|-------------------------------------------|
E|-------------------------------------------|
   D5     A5       E5        B5
E|-9--9-10-9---9-10-9---9-10-12-10-9-10------|
B|-------------------------------------------|
G|-------------------------------------------|
D|-------------------------------------------|
A|-------------------------------------------|
E|-------------------------------------------|
   D5     A5       E5 B5
E|-9--9-10-9-------9-------------------------|
B|-----------10-12---------------------------|
G|-------------------------------------------|
D|-------------------------------------------|
A|-------------------------------------------|
E|-------------------------------------------|

D5    D5

D5     A5     E5
 Esta ves, no se
        B5       D5
Si lo pueda prometer
    A5    E5
Esperar a que
      B5           D5
Pasen cosas sin querer
       A5           E5
No soy yo, Cuando estoy
      B5        D5
Cerca del anochecer

                     D5
Solo vos me podes calmar
                            F#5  D5
Solo vos me sacas de este lugar
  A5             F#5 D5
Lugar, de este lugar
          A5
De este lugar
          F#5 D5           A5
De este lugar,   de este lugar

De este lugar


Trompeta
   D5     A5       E5        B5
E|-9--9-10-9---9-10-9---9-10-12-10-9-10------|
B|-------------------------------------------|
G|-------------------------------------------|
D|-------------------------------------------|
A|-------------------------------------------|
E|-------------------------------------------|
   D5     A5       E5 B5
E|-9--9-10-9--9------------------------------|
B|--------------12-10------------------------|
G|-------------------------------------------|
D|-------------------------------------------|
A|-------------------------------------------|
E|-------------------------------------------|
   D5     A5       E5        B5
E|-9--9-10-9---9-10-9---9-10-12-10-9-10------|
B|-------------------------------------------|
G|-------------------------------------------|
D|-------------------------------------------|
A|-------------------------------------------|
E|-------------------------------------------|
   D5     A5       E5 B5
E|-9--9-10-9--9------------------------------|
B|--------------12-10------------------------|
G|-------------------------------------------|
D|-------------------------------------------|
A|-------------------------------------------|
E|-------------------------------------------|


D5      A5    E5
 Creo que no soy
      B5           D5
El mismo diría de atras
      A5         E5
Para bien o para mal
             B5         D5
El encuentro debe continuar
       A5          E5
No soy yo cuando estoy
      B5        D5
Cerca del anochecer

                      D5
Solo vos me podes calmar
                  F#5 D5 A5
Solo vos me sacas
          F#5 D5 A5
De este lugar
          F#5 D5 A5
De este lugar
          F#5 D5   A5
De este lugar,  lugar


Guitarra
   D5 C#5 D5     A5 A5 A5         B5 A5 B5   F#5 F#5 F#5
E|-10-9-10-10/12-9-10-10/12-10-9--9----10----9--10/12-10-9-|
B|----------------------------------10----10---------------|
G|---------------------------------------------------------| x 3
D|---------------------------------------------------------|
A|---------------------------------------------------------|
E|---------------------------------------------------------|

Trompeta

   D5  C#5  D5   A5
E|----9--9-----9-9-----|
B|-10-------10-----10--|
G|---------------------| x2
D|---------------------|
A|---------------------|
E|---------------------|
   B5     A5  B5   F#5
E|-17-21-21---17-21-21--17-|
B|-------------------------|
G|-------------------------| x2
D|-------------------------|
A|-------------------------|
E|-------------------------|


D5
                     D5
Solo vos me podes calmar
                            A5
Solo vos me sacas de este lugar

que chimba de tema como la mayoria de rey
dudas o comentarios al correo judacalo2@

            
            
Suggest correction
Creating personal tab
Creating personal tab
You can edit any tab online and save it as your Personal.

You can edit, replace or remove any tab part or add personal notes – all changes will be seen only by you.

Personal tabs can be accessed anytime from any device, even offline.
Learn more »
Give kudos to tab author, rate the tab!
1 2 3 4 5
comments
print report bad tab
guest
Wanna post a correction for this tab? Suggest correction