Oops, an error
Loading. Please wait.

Tú tab

version 1
version 1

Whole song

Interactive

by Reyli
11 views 3 this week
no commentswrite comment
1 2 3 4 5
3 more votes to show rating
add to favorites
×
Save as Personal and add changes to this tab that will be seen only by you. Learn more ›
×
You can save this tab as Personal to edit and correct it or add notes. All changes will be seen only by you. Learn more »
launch autoscroll
font size
0
reset
how to read this tab
guitar tuner
edit
Autoscroll
slow
fast
+/-
esc
set tempo
stop
?TÚ?
(REYLI)

INTRO
E-----------------------------------------------------------------0-----------------------------
B-----2----0/2---0------------------------------2---0/2--0--2-----------3------------------
G-----2--------------2/4---2------------2/4----2-----------------2--------------------------
D---------------------------------2/4---------------------------------------4-----------------
A-----0------------------------------------------0--------------------------------------------
E-----------------------------------------------------------------------------------------------

            Eres fantasía         un presentimiento          un murmullo del viento
E-----------------------------------------------------------------------------------------------
B----2--------------------0--------------------------0/2--3----------------------------3-----
G----2--------------------1--------------------------------2----------------------------4----
D----2--------------------2--------------------------------0----------------------------4----
A----0--------------------0--------------------------------------------------------------2----
E-----------------------------------------------------------------------------------------------

            No sé dónde estabas                   pero te veía         te esperaba en silencio
E--------------------------------------0---------------------------------------------------------
B-----2-----------------------------2------0----------------0/2--3-------------------------3--
G-----2---------------------------2--------1----------------------2-------------------------4--
D-----2-------------------------2----------2----------------------0-------------------------4--
A-----0---------------------------------------------------------------------------------------2--
E--------------------------------------------0----------------------------------------------------

            Déjame ser tu mitad                     dime que nunca te irás
E-----------------4-------------2----------------------------4-------------2--------------------
B-----2----------5--------------3-------------2-------------5-------------3--------------------
G-----2----------6--------------2-------------2-------------6-------------2--------------------
D-----4--------------------------0-------------4---------------------------0-------------------
A-----------------4-------------------------------------------4---------------------------------
E------2----------------------------------------2------------------------------------------------

CORO
  A                        E                                  D
Tú, como nadie más, lo que quise siempre
Bm                C#m        A            E
Hasta la muerte, sólo tú, mi debilidad
      Bm      C#m       F#m
Lo que me hace fuerte, estoy a punto de llorar
              C#m                               Bm
Te entrego mi vida, cuando me la pidas ooohh
 A         E           D      A         E          D
Tú, tú, tú, tú ,tú, tú   Tú, tú, tú, tú, tú, tú.
E--------------------------------------------
B--------------------------------------------
G--------------------------------------------
D-------2/4---2--0-------------------------
A--------------------------------------------
E--------------------------------------------
A                   E                        D
Eres melodía de mis sentimientos
                           Bm
El refugio perfecto  ahh
A                             E
No hace falta nada, ya no importa el tiempo
               D                                Bm
Porque estoy enamorado, me alejaste del pasado.

CORO

  A                        E                                  D
Tú, como nadie más, lo que quise siempre
Bm                C#m        A            E
Hasta la muerte, sólo tú, mi debilidad
      Bm      C#m       F#m
Lo que me hace fuerte, estoy a punto de llorar
                    C#m                               Bm
Te entrego mi vida, cuando me la pidas ooohh
 A         E           D      A         E          D
Tú, tú, tú, tú ,tú, tú    Tú, tú, tú, tú, tú, tú.


Disfruten al rola.
Dedicada a todas aquéllas chicas hermosas que nos hacen pasar momentos muy hermosos.
Gracias a todas ellas.
Wasa. compas y demás perrada.

            
            
Suggest correction
Creating personal tab
Creating personal tab
You can edit any tab online and save it as your Personal.

You can edit, replace or remove any tab part or add personal notes – all changes will be seen only by you.

Personal tabs can be accessed anytime from any device, even offline.
Learn more »
Give kudos to tab author, rate the tab!
1 2 3 4 5
comments
print report bad tab
guest
Wanna post a correction for this tab? Suggest correction