Oops, an error
Loading. Please wait.

Señal tab

by Rezaka
25 views 1 this week
no commentswrite comment
1 2 3 4 5
3 more votes to show rating
add to favorites
×
Save as Personal and add changes to this tab that will be seen only by you. Learn more ›
×
You can save this tab as Personal to edit and correct it or add notes. All changes will be seen only by you. Learn more »
launch autoscroll
font size
0
reset
how to read this tab
guitar tuner
edit
Autoscroll
slow
fast
+/-
esc
set tempo
stop
Bueno gente aquí les mando este tema de reZaka de su disco
alta fidelidad del 2010.
es la primera cancion que saco y la primera vez q lo subo a esta pagina.
El tema se toca con la guitarra afinada medio tono abajo como se indica.


Correo:gerardox_t_s_46@


AFINACION : eb Bb Gb Db Ab Eb


Intro:

D#5 - D#5

VERSO 1

 D#5                                     A#5
Dame una señal se que es difícil después de lo que paso y que al final
          C5           G#5
Todo cambio entre los dos
D#5                                        A#5
talvez fue un error no estoy pidiendo que volvamos a intentar no estoy
               C5           G#5
pidiendo nada mas solo hablar
F5     G#5             D#5        D#5
Años que pasaron sin olvidar (sin olvidar)
F5     G#5             D#5        D#5
Días que quedaron atrás (sin olvidar)

CORO

D#5                     A#5             G#5         A#5     D#5
Dame una señal dame una señal tu y yo merecemos la oportunidad
C5                      A#5             G#5         A#5     D#5
Dame una señal dame una señal tu y yo merecemos la oportunidad


     D#5     A#5     C5  A#5  G#5

eb||--0-----0--------0----0----0-----------|
Bb||---0-----0--------0----0----0----------|
Gb||---------------------------------------|
Db||---------------------------------------| x2
Ab||---------------------------------------|
Eb||---------------------------------------|


VERSO 2

D#5                                   A#5
Fue una adicción un problema que no tuvo solución
C5                   G#5
y que nunca terminó  termino
F5     G#5             D#5        D#5
Años que pasaron sin olvidar (sin olvidar)
F5     G#5             D#5        D#5
Días que quedaron atrás (sin olvidar)

CORO

D#5                     A#5             G#5         A#5     D#5
Dame una señal dame una señal tu y yo merecemos la oportunidad
C5                      A#5             G#5         A#5     D#5
Dame una señal dame una señal tu y yo merecemos la oportunidad

Solo:

D#5     A#5     C5  A#5  G#5  x2

eb||------------------------------------------------|
Bb||-----------9------------------------------------|
Gb||--4--6--8--11b-11-9-8-7-6-----------------------|
Db||---------------------------11-9-9?--------------|
Ab||------------------------------------------------|
Eb||------------------------------------------------|

eb||-------------------------------------------|
Bb||---12b-12-10-9-10-9------------------------|
Gb||--------------------11-9-8-----------------|
Db||---------------------------9---------------|
Ab||-------------------------------------------|
Eb||-------------------------------------------|


eb||---------------------------------------------|
Bb||-----17-----21--19--17----------17?----------|
Gb||--16---16-----16--16---16-20-16--------------|
Db||---------------------------------------------|
Ab||---------------------------------------------|
Eb||---------------------------------------------|


F5     G#5             D#5        D#5
Años que pasaron sin olvidar (sin olvidar)
F5     G#5
Lo se

D#5                     A#5             G#5         A#5     D#5
Dame una señal dame una señal tu y yo merecemos la oportunidad
C5                      A#5             G#5         A#5     D#5
Dame una señal dame una señal tu y yo merecemos la oportunidad

            
            
Suggest correction
Creating personal tab
Creating personal tab
You can edit any tab online and save it as your Personal.

You can edit, replace or remove any tab part or add personal notes – all changes will be seen only by you.

Personal tabs can be accessed anytime from any device, even offline.
Learn more »
Give kudos to tab author, rate the tab!
1 2 3 4 5
comments
print report bad tab
guest
Wanna post a correction for this tab? Suggest correction