Oops, an error
Loading. Please wait.

En Medio De Esta Fé tab

130 views 1 this week
no commentswrite comment
1 2 3 4 5
3 more votes to show rating
add to favorites
×
Save as Personal and add changes to this tab that will be seen only by you. Learn more ›
×
You can save this tab as Personal to edit and correct it or add notes. All changes will be seen only by you. Learn more »
launch autoscroll
font size
0
reset
how to read this tab
guitar tuner
edit
Autoscroll
slow
fast
+/-
esc
set tempo
stop
INTRO: (G) G D Am C*2

El verso se va punteado asi:
G                                             D
e/--------------3----------------------------2-------------
B/----------3------3-------3-----------3--------3-------3--
G/------0-------------0-------------2----------------2-----
D/---------------------------------0-----------------------
A/---------------------------------------------------------
E/--3------------------------------------------------------
    En    un    mundo   de    fantasía

   Am                                     C
e/ ------------------0---------------------------0---------
B/ -------------1-------1----- 1------------1------1-------
G/---------2----------------2-----------0----------------0-
D/ --------------------------------------------------------
A/ --0---------------------------------3-------------------
E/---------------------------------------------------------
    Me encontré con tu amor y los besos de cada día
G                                             D
e/--------------3----------------------------2-------------
B/----------3------3-------3-----------3--------3-------3--
G/------0-------------0-------------2----------------2-----
D/---------------------------------0-----------------------
A/---------------------------------------------------------
E/--3------------------------------------------------------
        Y  ahora  tengo  un   luz    inmensa

      Am                                     C
e/ ------------------0---------------------------0---------
B/ -------------1-------1----- 1------------1------1-------
G/---------2----------------2-----------0----------------0-
D/ --------------------------------------------------------
A/ --0---------------------------------3-------------------
E/---------------------------------------------------------

   Me guía donde voy     y en tus brazos sueño despierto

(Aquí ya se va rasgado)
G                    D
Te espero en las estrellas
         Am                                C
pues allí es donde voy cada vez que yo estoy contigo
G                          D
Y si esta noche me esperas
     Am                                     C
te daré el corazón con tu nombre en cada latido

En el coro son 2 tiempos cada nota
antes del coro, en C
   ©©
e/ -------------------0-----------------------------------
B/ ---------------1------------ --------------------------
G/-------------0------------------------------------------
D/ ---------2---------------------------------------------
A/ -----3--------------------3-----2----------------------
E/--0-------------------------------------3------0--------
                                                      Em/
                                Piensa que yo
  (Em)
 ahora estoy dentro de
(D)
ti    Que he encontrado el cielo

 (Am)                                        (C)
justo alli   Y es solo con verte sonreír

©©    Em
Y aquí estaré parado en medio de esta
 D
Fe   Ignorando el tiempo y lo
 Am                                         C
Que fue      Tengo todo si tu estas aquí,
              ©©
Piensa que yo...

Luego viene esto:
  Em*        Dsus4          Am               C      *(2 veces)
e/--2------------3--------------0---------------0------
B/--0------------3-- -----------1---------------1------
G/--0------------2--------------2---------------0------
D/--2------------0--------------2---------------2------
A/--2------------0--------------0---------------3------
E/--0------------0--------------0---------------0------

Igual q el primer verso:

G                     D
Te escribí en una poesía,
       Am                            C
Con palabras de amor y deseos que cumpliría
G                         D
Y en tu alma he encontrado fuerzas
       Am                                  C
Para hacer la ilusión de tener un mundo perfecto
G                  D
Dame noches eternas,
       Am                           C
yo te doy la pasión de mis manos sobre tu cuerpo
G                     D
Y si esta noche me esperas

    Am                          C
te daré la emoción de vivir en sueños eternos

CORO

Pensa q yo....

Em*5

SOLO:

e/-0-0-0-0-0-0-0-0----7-7-7-7-7-6/7-7-7-7-7-7---5-5-5-5-5-5-5-5-5-5-5-5-
B/-4/5-5-5-5-5-5-5----0-0-0-0-0-0-0-0-0-0-0-0---0-0-0-0-0-0-0-0-0-0-0-0-
G/-0-0-0-0-0-0-0-0----4-4-4-4-4-4-4-4-4-4-4-4---2-2-2-2-2-2-2-2-2-2-2-2-

CORO
Piensa q yo...

Em G D Am C

Final
 e/ -------------------0--------------------------------
B/ ---------------1------------ ------------------------
G/-------------0----------------------------------------
D/ ---------2-------------------------------------------
A/ -----3--------------------3-----2--------------------
E/--0-------------------------------------3------0------

Bno esto va para una chava muy especial q tiene mi corazon
y 100pre va a estar allí... K-rol te quiero como no tenes
idea y cada verso de esta canción es para ti!!!! mua!TQMMMM!!!!

            
            
Suggest correction
Creating personal tab
Creating personal tab
You can edit any tab online and save it as your Personal.

You can edit, replace or remove any tab part or add personal notes – all changes will be seen only by you.

Personal tabs can be accessed anytime from any device, even offline.
Learn more »
Give kudos to tab author, rate the tab!
1 2 3 4 5
comments
print report bad tab
guest
Wanna post a correction for this tab? Suggest correction