Oops, an error
Loading. Please wait.

Eres Tú tab

79 views 1 this week
no commentswrite comment
1 2 3 4 5
3 more votes to show rating
add to favorites
×
Save as Personal and add changes to this tab that will be seen only by you. Learn more ›
×
You can save this tab as Personal to edit and correct it or add notes. All changes will be seen only by you. Learn more »
launch autoscroll
font size
0
reset
how to read this tab
guitar tuner
edit
Autoscroll
slow
fast
+/-
esc
set tempo
stop
Esta canción esta buena del GUATEMALTECO RICARDO ANDRADE

NOTA
EN LA MANO DERECHA EN EL TECLADO SOLO SE TOCA UNA TECLA D, E,
F#, E, D, B, A, B

INTRO
D A E G
D A E G

Guitarra
  D                   A
e|------------------------------
B|-3-----5------7-------5-5/3---
G|0-----------------------------
D|------------------------------
A|------------------------------
E|------------------------------
TECLADO
  D          E          F#     E    (Mano derecha)
-------------------------------------------
Guitarra
  E                   G
e|------------------------------
B|-3-----5------7-------8-8p7---
G|0-----------------------------  x 2
D|------------------------------
A|------------------------------
E|------------------------------
TECLADO
  D                    B    A     B
--------------------------------------------

Aquí lo mismo q en el intro

Guitarra
  D                   A
e|------------------------------
B|-3-----5------7-------5-5/3---
G|0-----------------------------
Teclado
  D           E        F#     E
    Eres               túuu

Guitarra
  E                   G
e|------------------------------
B|-3-----5------7-------8-8p7---
G|0-----------------------------
Teclado
  D                    F#     E

    La que con un       beso me saca de mí

D              A
  Pienso en tu luz
E             G
  Y en esas caderas moviéndose así


D        A
  Y cada vez
E               G
   Me pierdo en tu cuerpo
               D
Y tú forma de haaablar

        A                      G
Cuando me dice que eres para mí
        A                      D
Cuando me dices no vivo sin ti

LAS  QUE van ENCERADAS CON ESTE |x| SIGNO SON APAGADAS
        A                     G
B|-3-3---3--|3|--3----|3|--3---3-3---3--|
G|----|2|-----|2|-------|2|-------|2|---|
Cuando me dice que eres para mí
        A                  D    A        G     A
B|-3-3---3--|3|--3----|3|--3----|3|--3----2-3-3/5~-----|
G|----|2|-----|2|-------|2|-------|2|------------------|
Cuando me dices no vivo sin tiiiiiií

D           A
  Jee, dale tiempoo
E                 G
  Cuando me estas viendo
                  D
 Yo pierdo el control
                 A
 Y aunque hay momentos
E                 G
   En que no comprendo el por qué
           D
 De este amor

            A
 Y aunque lo sé
E             G
 Busco la respuesta
                D
En tu voz tan sensual


        A                      G
Cuando me dice que eres para mí
        A                      D
Cuando me dices no vivo sin ti

        A                     G
B|-3-3---3--|3|--3----|3|--3---3-3---3--|
G|----|2|-----|2|-------|2|-------|2|---|
Cuando me dice que eres para mí
        A                    D    A        G    A
B|-3-3---3--|3|--3----|3|--3----|3|--3--------|
G|----|2|-----|2|-------|2|-------|2|---------|
Cuando me dices no vivo sin tiiiiiií

             D     A   G
No vivo sin ti
 A
 No vivo sin ti

SOLO:
      D         A   G               A          D
e|------------------------------------------------------------
B|--2h3p2-2-2~-------------------------10------7h8p7h8p7-7~---
G|-------------4~-/-2/4-4/6-6/7-7/9-9--9~---------------------
D|------------------------------------------------------------
A|------------------------------------------------------------
E|------------------------------------------------------------
     A                    G      A                    D
e|-------------------------------9-10--7-10-5h7-7/9---10---|
B|---7h8p7h8p7-7-8-10-8-7----------------------------------|
G|------------------------7--------------------------------|
D|---------------------------------------------------------|

             A
  Juuh? eres tú
E                G            D
  La que con un beso me saca de mí
                A
  Pienso en tu luz
E              G                D
  Y en esas caderas moviéndose así

          A
  Y cada vez más
E                 G
  Me pierdo en tu cuerpo
             D
  Y tú forma de hablar

         A                      G
  Cuando me dice que eres para mí
         A                    D
  Cuando me dices no vivo sin ti
         A                     G
  Cuando me dice que eres para mí
         A                      D A G A
  Cuando me dices no vivo sin tiiiiii
             D A G  A
  No vivo sin tiiiii uuuh
            D A G
 No vivo sin ti
   A            D
OH yeah na,na na na nau

A
  No vivo sin,
G
  No vivo sin,
A              D
  No vivo sin ti.


Descanse en paz RICARDO ANDRADE

¡QUE VIVA EL ROCK CHAPIN!
Desde CHIMALTENANGO RAFA-ANGEL

            
            
Suggest correction
Creating personal tab
Creating personal tab
You can edit any tab online and save it as your Personal.

You can edit, replace or remove any tab part or add personal notes – all changes will be seen only by you.

Personal tabs can be accessed anytime from any device, even offline.
Learn more »
Give kudos to tab author, rate the tab!
1 2 3 4 5
comments
print report bad tab
guest
Wanna post a correction for this tab? Suggest correction