Oops, an error
Loading. Please wait.

Tan Vacío chords

version 1
version 1

Whole song

70 views 1 this week
no commentswrite comment
1 2 3 4 5
3 more votes to show rating
add to favorites
×
Save as Personal and add changes to this tab that will be seen only by you. Learn more ›
×
You can save this tab as Personal to edit and correct it or add notes. All changes will be seen only by you. Learn more »
launch autoscroll
font size
0
reset
transpose
0
reset
display chords
guitar tuner
edit
Autoscroll
slow
fast
+/-
esc
set tempo
stop
Strumming
There is no strumming pattern for this song yet. and get +5 IQ
quiero dedicar esta cancion a raquel y quiero que sepa
que la quiero, y me duele que lo nuestro no este 
funcionando.


   D*                                  A*
E----------------------------------------------------
A----------------------------------------------------
D--0-----------0-----------0------------2------------
G----2---2--2----2----2-2----2---2----2---2---2-2----
B-----3---3--------3---3------3---3--------3---3-----
e------0------------0----------0----0-------0--------

                G*                      A*
E---------------3-----------3-------------------------
A---------------------------------------0-------------
D--2----------------------------------------------2---
G---2---2---2-----0----0-0----0---0---0---2---2-2-----
B----3---3----------3---3------3---3-------3---3------
e-----0---0----------0----------0---0-------0---------

             D*                   A*
E----------------------------------------------------
A-----------------------------------------------------
D------------0---------0-----------2------------------
G--2---2---2---2---2-0---2---2---2---2---2-2----------
B---3---3-------3---3-----3---3-------3---3-----------
e----0---0-------0---------0---0-------0--------------


D*  
Te espero y casi sin pensar
                 A*
me enbuelbo en una descepcion
                 G*
pues sin querer mi corazon
                A* 
depende de lo que quieras
                 D*
y asi me siento un tonto vez
                   A*
pues sueño lo que no sera
                 G*
y es que no eres para mi
              A*
y quiero estar contigo
                D*
no sabes cuantas veces yo
                    A*
pinte tu nombre en la pared
                   G*
tan solo por querer tener
              A*
mas cerca algo tuyo
                D*
y ahora no puedo dormir
                      A*
pensando en que por fin te vi-----
                G*
y solo te pude decir
                A*
lo nuestro es tan vacio
                     D*
y es que no importa el que decir
                        A*
si yo estoy preso en este amor
                  G*
con solo un beso tu podras
              A*
hacer guardar silencio
            
                  D*
y no es tan facil comprender
            A*
no verte y tus motivos
                G*
y siento tantos celos
            A*
y soy tan inseguro 
                D*
te espero y casi sin pensar
                  A*
me embuelbo en una descepcion
               G*
pues sin queres mi corazon 
            A*
solo quiere estar
       D*
contigo

no se como se llaman estos acordes, pero yo los llamo
asi.
    D*  A*   G*
E   X   X    3
A   X   0    X
D   0   2    0 
G   2   2    0
B   3   3    3
E   0   0    0

Hay algunos rasgueos que ustedes sabran escuchando
escuchando la cancion. buena suerte..
OH, cualquier sugerencia comentaro reclamo o lo que 
sea, ya saben mi correo. cuidense..

            
            
Suggest correction
Creating personal tab
Creating personal tab
You can edit any tab online and save it as your Personal.

You can edit, replace or remove any tab part or add personal notes – all changes will be seen only by you.

Personal tabs can be accessed anytime from any device, even offline.
Learn more »
Give kudos to tab author, rate the tab!
1 2 3 4 5
comments
print report bad tab
guest
Wanna post a correction for this tab? Suggest correction