Oops, an error
Loading. Please wait.
40 views 1 this week
no commentswrite comment
1 2 3 4 5
3 more votes to show rating
add to favorites
×
Save as Personal and add changes to this tab that will be seen only by you. Learn more ›
×
You can save this tab as Personal to edit and correct it or add notes. All changes will be seen only by you. Learn more »
launch autoscroll
font size
0
reset
how to read this tab
guitar tuner
edit
Autoscroll
slow
fast
+/-
esc
set tempo
stop
*Es la versión que viene escondida después de Barco de Papel.*
Alguna vez esta canción representó nuestras vidas,
por eso te la dedico con mucho K-riño sólo para ti
Colita.


e:--------0-----------------0--------------------0-----------------0------------------
B:------3-----3-----------3-----3--------------3-----3-----------3-----3--------------
G:----2-----2---2-------2-----2---2----------2-----2---2-------2-----2---2------------
D:--0-----------------0--------------------0-----------------0------------------------
A:------------------------------------------------------------------------------------
E:------------------------------------------------------------------------------------
                            Te espero y casi sin pensar            me envuelvo en una

e:--------0-----------------0------------------------0-----------------0------------------
B:------3-----3-----------3-----3------------------3-----3-----------3-----3--------------
G:----2-----2---2-------2-----2---2--------------0-----0---0-------0-----0---0------------
D:--2-----------------2-------------------------------------------------------------------
A:----------------------------------------------------------------------------------------
E:---------------------------------------------3-----------------3------------------------
    descepción              pues sin querer mi corazón                 depende de lo

e:--------0-----------------0------------------------0-----------------0------------------
B:------3-----3-----------3-----3------------------3-----3-----------3-----3--------------
G:----2-----2---2-------2-----2---2--------------2-----2---2-------2-----2---2------------
D:---------------------------------------------0-----------------0------------------------
A:--0----------------0--------------------------------------------------------------------
E:----------------------------------------------------------------------------------------
    que quieras             Y así me siento un tonto ves               pues sueño lo que

e:--------0-----------------0----------------------0-----------------0------------------
B:------3-----3-----------3-----3----------------3-----3-----------3-----3--------------
G:----2-----2---2-------2-----2---2------------0-----0---0-------0-----0---0------------
D:--2-----------------2-----------------------------------------------------------------
A:--------------------------------------------------------------------------------------
E:-------------------------------------------3-----------------3------------------------
    no será                 y es que no eres para mí                 y quiero estar

e:--------0-----------------0----------------------0-----------------0------------------
B:------3-----3-----------3-----3----------------3-----3-----------3-----3--------------
G:----2-----2---2-------2-----2---2------------0-----0---0-------0-----0---0------------
D:--------------------------------------------------------------------------------------
A:--0----------------0------------------------------------------------------------------
E:-------------------------------------------3-----------------3------------------------
    contigo                 No sabes cuantas veces yo                pinté tu nombre en

e:--------0-----------------0---------------------0-----------------0------------------
B:------3-----3-----------3-----3---------------3-----3-----------3-----3--------------
G:----2-----2---2-------2-----2---2-----------0-----0---0-------0-----0---0------------
D:-------------------------------------------------------------------------------------
A:--0----------------0-----------------------------------------------------------------
E:------------------------------------------3-----------------3------------------------
    la pared                tan sólo por querer tener               más cerca algo

e:--------0-----------------0-------------------0-----------------0------------------
B:------3-----3-----------3-----3-------------3-----3-----------3-----3--------------
G:----2-----2---2-------2-----2---2---------2-----2---2-------2-----2---2------------
D:----------------------------------------0-----------------0------------------------
A:--0----------------0---------------------------------------------------------------
E:-----------------------------------------------------------------------------------
    tuyo                    Y ahora no puedo dormir               pensando en que por

e:--------0-----------------0-----------------0-----------------0------------------
B:------3-----3-----------3-----3-----------3-----3-----------3-----3--------------
G:----2-----2---2-------2-----2---2-------0-----0---0-------0-----0---0------------
D:--2-----------------2------------------------------------------------------------
A:---------------------------------------------------------------------------------
E:--------------------------------------3-----------------3------------------------
    fin te ví               y sólo te pude decir                lo nuestro es tan

e:--------0-----------------0----------------------------0-----------------0------------------
B:------3-----3-----------3-----3----------------------3-----3-----------3-----3--------------
G:----2-----2---2-------2-----2---2------------------2-----2---2-------2-----2---2------------
D:-------------------------------------------------0-----------------0------------------------
A:--0----------------0------------------------------------------------------------------------
E:--------------------------------------------------------------------------------------------
    vacío                   Y es que no importa el qué decir               si yo estoy preso en

e:--------0-----------------0----------------------0-----------------0------------------
B:------3-----3-----------3-----3----------------3-----3-----------3-----3--------------
G:----2-----2---2-------2-----2---2------------0-----0---0-------0-----0---0------------
D:--2-----------------2-----------------------------------------------------------------
A:--------------------------------------------------------------------------------------
E:-------------------------------------------3-----------------3------------------------
    este amor               con sólo un beso tú podrás               hacer guardar

e:--------0------------
B:------3-----3--------
G:----2-----2---2------ Desvaneciendo por que viene una pausa.
D:---------------------
A:--0------------------
E:---------------------
    silencio

e:------------------------0-----------------0--------------------0-----------------0------------------
B:---Sólo---------------3-----3-----------3-----3--------------3-----3-----------3-----3--------------
G:----LA--------------2-----2---2-------2-----2---2----------2-----2---2-------2-----2---2------------
D:----Vos-----------0-----------------0--------------------2-----------------2------------------------
A:----------------------------------------------------------------------------------------------------
E:----------------------------------------------------------------------------------------------------
  Y no es tan fácil comprender              no verte y tus motivos                 y siento tantos

e:--------0-----------------0-------------------0-----------------0------------------
B:------3-----3-----------3-----3-------------3-----3-----------3-----3--------------
G:----0-----0---0-------0-----0---0---------2-----2---2-------2-----2---2------------
D:-----------------------------------------------------------------------------------
A:----------------------------------------0----------------0-------------------------
E:--3---------------3----------------------------------------------------------------
    celos                   y soy tan inseguro                    Te espero y casi

e:--------0-----------------0------------------------0-----------------0------------------
B:------3-----3-----------3-----3------------------3-----3-----------3-----3--------------
G:----2-----2---2-------2-----2---2--------------2-----2---2-------2-----2---2------------
D:--0-----------------0------------------------2-----------------2------------------------
A:----------------------------------------------------------------------------------------
E:----------------------------------------------------------------------------------------
    sin pensar              me envuelvo en una descepción              pues sin querer mi

e:--------0-----------------0-------------------0----
B:------3-----3-----------3-----3-------------3------
G:----0-----0---0-------0-----0---0---------2--------  Sólo LA vos
D:---------------------------------------------------
A:----------------------------------------0----------
E:--3---------------3--------------------------------
    corazón                 sólo quiere estar            contigo.

e:--------0---5--------
B:------3--------------
G:----2---------------- Final.
D:--0------------------
A:---------------------
E:---------------------

Alguna duda o comentario ahí arriba está mi correo, disfrútenla y tóquenla,
ojalá y les guste, para mí tiene mucha historia, hagan ustedes la suya.

            
            
Suggest correction
Creating personal tab
Creating personal tab
You can edit any tab online and save it as your Personal.

You can edit, replace or remove any tab part or add personal notes – all changes will be seen only by you.

Personal tabs can be accessed anytime from any device, even offline.
Learn more »
Give kudos to tab author, rate the tab!
1 2 3 4 5
comments
print report bad tab
guest
Wanna post a correction for this tab? Suggest correction