Oops, an error
Loading. Please wait.

Jesús Es Verbo No Sustantivo tab

version 4
version 4

Whole song

Interactive

43 views 3 this week
no commentswrite comment
1 2 3 4 5
3 more votes to show rating
add to favorites
×
Save as Personal and add changes to this tab that will be seen only by you. Learn more ›
×
You can save this tab as Personal to edit and correct it or add notes. All changes will be seen only by you. Learn more »
launch autoscroll
font size
0
reset
how to read this tab
guitar tuner
edit
Autoscroll
slow
fast
+/-
esc
set tempo
stop
ESTA ROLA SE LA DEDICO A TODOS LOS QUE HAN CONFIADO EN MI EN LA GUITARRA
Y A MIS AMIGOS QUE CONVIVEN CONMIGO, LOS QUIERO MUCHO.

ayer Jesús afino mi guitarra y agudizo mis sentidos, me inspiro
papel y lápiz en mano apunto la canción y me negué a escribir
por que hablar y escribir sobre Jesús es redundar, seria mejor actuar
luego algo me dijo que la única forma de no redundar es decir la verdad
decir que a Jesús le gusta que actuemos no que hablemos
decir que Jesús es mas que 5 letras formando un nombre
decir que Jesús es verbo no sustantivo

e-10--5--7--5--3-10-9-7-9--10---------------------------10-7-9h10p9-7-9-5-
B------------------------------10-------10---10-7---7-7-------------------
G---------------------------------12-11-12-9------9-----------------------
D-12--7--9--7--5--7--------12---------------------------------------------
A-------------------------------------------------------------------------
E-------------------------------------------------------------------------

e-------------7---5h7p5-3-5-2---------------2h3p2-0-2---
B---7-5---5-5---7-------------0-0-2-3-2-3-5-----------3-
G-7-----7-----------------------------------------------
D-------------------------------------------------------
A-------------------------------------------------------
E-------------------------------------------------------

e-7-7-5-4-5-7-4-9-12-10-9h10p9---------2---------------2-------
B-9-9-7-5-7-9-5-9----12------------3-------3-------3-------3---
G--------------------------------2---2---2---2---2---2---2---2-
D------------------------------0---------------0---------------
A--------------------------------------------------------------
E--------------------------------------------------------------

 Jesús es mas que una simple y llana teoría
e---------2----------------0---------------2-----------------------
B-----3-------3--------2-------2-------3-------3-------3-------2---
G---2---2---2---2----2---2---2---2---4---4---4---4---4---4---2---2-
D-0----------------------------------------------------------------
A------------------0---------------2---------------2-------0-------
E------------------------------------------------------------------

que haces hermano leyendo la Biblia todo el día
e---------3---------------0---------------3---------------3-------
B-----3-------3-------2-------2-------3-------3-------3-------3---
G---0---0---0---0---2---2---2---2---2---2---2---2---2---2---2---2-
D---------------------------------0---------------0---------------
A-----------------0-----------------------------------------------
E-3---------------------------------------------------------------

lo que allí esta escrito se resume en amor vamos ve y practícalo
e---------3---------------0-------------2--------0-----------------
B-----3-------3-------2-------2-------3--------2-----------3-------
G---0---0---0---0---2---2---2---2---2--------2---------4-------4---
D---------------------------------0------------------4---4---4---4-
A-----------------0------------------------4-------2---------------
E-3----------------------------------------------------------------

Jesús hermanos míos es verbo y no sustantivo
e---------3---------------0---------------2---------------2-------
B-----3-------3-------2-------2-------3-------3-------3-------3---
G---0---0---0---0---2---2---2---2---2---2---2---2---2---2---2---2-
D---------------------------------0---------------0---------------
A-----------------0-----------------------------------------------
E-3---------------------------------------------------------------

Jesús es mas que un templo de lujo con tendencia barroca
e---------2----------------0---------------2-----------------------
B-----3-------3--------2-------2-------3-------3-------3-------2---
G---2---2---2---2----2---2---2---2---4---4---4---4---4---4---2---2-
D-0----------------------------------------------------------------
A------------------0---------------2---------------2-------0-------
E------------------------------------------------------------------

el sabe que total a la larga esto no es mas que roca
e---------3---------------0---------------3---------------3-------
B-----3-------3-------2-------2-------3-------3-------3-------3---
G---0---0---0---0---2---2---2---2---2---2---2---2---2---2---2---2-
D---------------------------------0---------------0---------------
A-----------------0-----------------------------------------------
E-3---------------------------------------------------------------

la iglesia se lleva en el alma y en los actos no se te olvide
e---------3---------------0-------------2--------0-----------------
B-----3-------3-------2-------2-------3--------2---------3-------2-
G---0---0---0---0---2---2---2---2---2--------2---------4-------2---
D---------------------------------0------------------4-------2-----
A-----------------0------------------------4-------2-------0-------
E-3----------------------------------------------------------------

que Jesús hermanos míos es verbo y no sustantivo
e---------3---------------0---------------2---------------2-------
B-----3-------3-------2-------2-------3-------3-------3-------3---
G---0---0---0---0---2---2---2---2---2---2---2---2---2---2---2---2-
D---------------------------------0---------------0---------------
A-----------------0-----------------------------------------------
E-3---------------------------------------------------------------

Jesús es mas que un grupo de señoras de muy negra conciencia
e---------2----------------0---------------2-----------------------
B-----3-------3--------2-------2-------3-------3-------3-------2---
G---2---2---2---2----2---2---2---2---4---4---4---4---4---4---2---2-
D-0----------------------------------------------------------------
A------------------0---------------2---------------2-------0-------
E------------------------------------------------------------------

que pretenden ganarse el cielo con club de beneficencia
e---------3---------------0---------------3---------------3-------
B-----3-------3-------2-------2-------3-------3-------3-------3---
G---0---0---0---0---2---2---2---2---2---2---2---2---2---2---2---2-
D---------------------------------0---------------0---------------
A-----------------0-----------------------------------------------
E-3---------------------------------------------------------------

si quieres tu ser miembro activa tendrás que presentar a la directiva
e---------3---------------0-------------2--------0-----------------
B-----3-------3-------2-------2-------3--------2-------------------
G---0---0---0---0---2---2---2---2---2--------2---------4-------2---
D---------------------------------0------------------4---4---2---2-
A-----------------0------------------------4-------2-------0-------
E-3----------------------------------------------------------------

tu cuenta de ahorros en Suiza y verte unos oficiales
e---------3---------------0---------------2---------------2-------
B-----3-------3-------2-------2-------3-------3-------3-------3---
G---0---0---0---0---2---2---2---2---2---2---2---2---2---2---2---2-
D---------------------------------0---------------0---------------
A-----------------0-----------------------------------------------
E-3---------------------------------------------------------------

Jesús es mas que persignarse, hincarse y hacer de esto alarde
e---------2----------------0---------------2-----------------------
B-----3-------3--------2-------2-------3-------3-------3-------2---
G---2---2---2---2----2---2---2---2---4---4---4---4---4---4---2---2-
D-0----------------------------------------------------------------
A------------------0---------------2---------------2-------0-------
E------------------------------------------------------------------

el sabe que quizá por dentro la conciencia les arde
e---------3---------------0---------------3---------------3-------
B-----3-------3-------2-------2-------3-------3-------3-------3---
G---0---0---0---0---2---2---2---2---2---2---2---2---2---2---2---2-
D---------------------------------0---------------0---------------
A-----------------0-----------------------------------------------
E-3---------------------------------------------------------------

Jesús es mas que una flor en el altar salvadora de pecados
e---------3---------------0-------------2--------0-----------------
B-----3-------3-------2-------2-------3--------2---------3-------2-
G---0---0---0---0---2---2---2---2---2--------2---------4-------2---
D---------------------------------0------------------4-------2-----
A-----------------0------------------------4-------2-------0-------
E-3----------------------------------------------------------------

Jesús hermanos míos es verbo y no sustantivo
e---------3---------------0---------------2---------------2-------
B-----3-------3-------2-------2-------3-------3-------3-------3---
G---0---0---0---0---2---2---2---2---2---2---2---2---2---2---2---2-
D---------------------------------0---------------0---------------
A-----------------0-----------------------------------------------
E-3---------------------------------------------------------------

e---------1---------------1-------
B-----3-------3-------3-------3---
G---3---3---3---3---3---3---3---3-
D---------------------------------
A-1---------------1---------------
E---------------------------------

Jesús convertirá en hechos todos sus sermones
e---------3---------------1---------------3-----------------------
B-----4-------4-------3-------3-------4-------4-------4-------3---
G---3---3---3---3---3---3---3---3---5---5---5---5---5---5---3---3-
D-1---------------------------------------------------------------
A-----------------1---------------3---------------3-------1-------
E-----------------------------------------------------------------

que si tomas café es pecado dicen los mormones
e---------4---------------1---------------3---------------3-------
B-----4-------4-------3-------3-------4-------4-------4-------4---
G-------------------3---3---3---3---3---3---3---3---3---3---3---3-
D---6---6---6---6-----------------1---------------1---------------
A-----------------1-----------------------------------------------
E-4---------------------------------------------------------------

tienen tan poco que hacer que andan inventado cada cosa
e---------4-------------------------------------------------------
B-----4-------4-----------6-------------------------------4-------
G---------------------7-------7-------8-------7-------5-------5---
D---6---6---6---6---8---8---8---8---8---8---8---8---5---5---5---5-
A---------------------------------6-------5-------3---------------
E-4---------------6-----------------------------------------------

Jesús hermanos míos es verbo no sustantivo
e---------4---------------1---------------3---------------3-------
B-----4-------4-------3-------3-------4-------4-------4-------4---
G-------------------3---3---3---3---3---3---3---3---3---3---3---3-
D---6---6---6---6-----------------1---------------1---------------
A-----------------1-----------------------------------------------
E-4---------------------------------------------------------------

Jesús no entiende por que en el culto le aplauden
e---------3---------------1---------------3-----------------------
B-----4-------4-------3-------3-------4-------4-------4-------3---
G---3---3---3---3---3---3---3---3---5---5---5---5---5---5---3---3-
D-1---------------------------------------------------------------
A-----------------1---------------3---------------3-------1-------
E-----------------------------------------------------------------

hablan de honestidad sabiendo que el diezmo es un fraude
e---------4---------------1---------------3---------------3-------
B-----4-------4-------3-------3-------4-------4-------4-------4---
G-------------------3---3---3---3---3---3---3---3---3---3---3---3-
D---6---6---6---6-----------------1---------------1---------------
A-----------------1-----------------------------------------------
E-4---------------------------------------------------------------

a Jesús le da asco el pastor que se hace rico non la fe
e---------4----------------------------------------------------------
B-----4-------4-----------6------------------------------------------
G---------------------7-------7-------8-------7----------------------
D---6---6---6---6---8---8---8---8---8---8---8---8------10--------8---
A---------------------------------6-------5---------10----10---8---8-
E-4---------------6-------------------------------8----------6-------

Jesús hermanos míos es verbo no sustantivo
e---------4---------------1-------------3-
B-----4-------4-------3-------3-------4-4-
G-------------------3---3---3---3---3---3-
D---6---6---6---6-----------------1-----1-
A-----------------1---------------------1-
E-4-------------------------------------1-

e----------------------13-15-18-18-------------18-16-15-16-
B----------11-11----11----------------------11-------------
G----10-12----------------------------10-12----------------
D-13-------------13----------------13----------------------
A----------------------------------------------------------
E----------------------------------------------------------

e----------------16-15-13-15-------------12-13-15-16-
B----------11-13----------------------11-------------
G----10-12----------------------10-12----------------
D-13-------------------------13----------------------
A----------------------------------------------------
E----------------------------------------------------

e-18-18-15-15-12-12-9-9-6-6-3-3-0-0-------------5-2---0-----0-
B-----------------------------------2-3-------------3---2-3---
G-18-18-15-15-12-12-9-9-6-6-3-3-0-0---------3-4---------------
D---------------------------------------4-6-------------------
A-------------------------------------------------------------
E-------------------------------------------------------------

de mi barrio la mas religiosa era Doña Carlota
e---------2----------------0---------------2-----------------------
B-----3-------3--------2-------2-------3-------3-------3-------2---
G---2---2---2---2----2---2---2---2---4---4---4---4---4---4---2---2-
D-0----------------------------------------------------------------
A------------------0---------------2---------------2-------0-------
E------------------------------------------------------------------

hablaba de amor al prójimo y me poncho cien pelotas
e---------3---------------0---------------3---------------3-------
B-----3-------3-------2-------2-------3-------3-------3-------3---
G---0---0---0---0---2---2---2---2---2---2---2---2---2---2---2---2-
D---------------------------------0---------------0---------------
A-----------------0-----------------------------------------------
E-3---------------------------------------------------------------

desde chico fui aprendiendo que la religión no es mas que un método
e---------3---------------0---------------------------------------
B-----3-------3-------2-------2-------3--------2-----------3-------
G---0---0---0---0---2---2---2---2---2---2----2---2-----4-------4---
D---------------------------------0------------------4---4---4---4-
A-----------------0------------------------4-------2---------------
E-3----------------------------------------------------------------

con el titulo prohibido pensar que ya todo esta escrito
e---------3---------------0-------------2-
B-----3-------3-------2-------2-------3-3-
G---0---0---0---0---2---2---2---2---2---2-
D---------------------------------0-----0-
A-----------------0---------------------0-
E-3-------------------------------------0-

no puse las  notas del piano por que sobrepasan el 20º traste de la guitarra
pero este es el acompañamiento
D A Bm F#m G D Em A
me bautizaron cuando tenia dos meses y a mi no me avisaron
e---------2----------------0---------------2-----------------------
B-----3-------3--------2-------2-------3-------3-------3-------2---
G---2---2---2---2----2---2---2---2---4---4---4---4---4---4---2---2-
D-0----------------------------------------------------------------
A------------------0---------------2---------------2-------0-------
E------------------------------------------------------------------

hubo fiesta, piñatas y a mi ni me preguntaron
e---------3---------------0---------------3---------------3-------
B-----3-------3-------2-------2-------3-------3-------3-------3---
G---0---0---0---0---2---2---2---2---2---2---2---2---2---2---2---2-
D---------------------------------0---------------0---------------
A-----------------0-----------------------------------------------
E-3---------------------------------------------------------------

bautízame tu Jesús por favor así entre amigos
e---------3---------------0-------------2--------0-----------------
B-----3-------3-------2-------2-------3--------2-----------3-------
G---0---0---0---0---2---2---2---2---2--------2---------4-------4---
D---------------------------------0------------------4---4---4---4-
A-----------------0------------------------4-------2---------------
E-3----------------------------------------------------------------

se que odias el protocolo hermano mío
e---------3---------------0---------------2---------------2-------
B-----3-------3-------2-------2-------3-------3-------3-------3---
G---0---0---0---0---2---2---2---2---2---2---2---2---2---2---2---2-
D---------------------------------0---------------0---------------
A-----------------0-----------------------------------------------
E-3---------------------------------------------------------------

e---------1---------------1-------
B-----3-------3-------3-------3---
G---3---3---3---3---3---3---3---3-
D---------------------------------
A-1---------------1---------------
E---------------------------------

señores no dividan la fe las fronteras son para los países
e---------3---------------1---------------3-----------------------
B-----4-------4-------3-------3-------4-------4-------4-------3---
G---3---3---3---3---3---3---3---3---5---5---5---5---5---5---3---3-
D-1---------------------------------------------------------------
A-----------------1---------------3---------------3-------1-------
E-----------------------------------------------------------------

en este mundo hay mas religiones que niños felices
e---------4---------------1---------------3---------------3-------
B-----4-------4-------3-------3-------4-------4-------4-------4---
G-------------------3---3---3---3---3---3---3---3---3---3---3---3-
D---6---6---6---6-----------------1---------------1---------------
A-----------------1-----------------------------------------------
E-4---------------------------------------------------------------

Jesús pensó ?me haré invisible para que todos mis hermanos
e---------4-------------------------------------------------------
B-----4-------4-----------6-------------------------------4-------
G---------------------7-------7-------8-------7-------5-------5---
D---6---6---6---6---8---8---8---8---8---8---8---8---5---5---5---5-
A---------------------------------6-------5-------3---------------
E-4---------------6-----------------------------------------------

dejen de estar hablando tanto de mi y se tiendan la mano?
e---------4---------------1---------------3---------------3-------
B-----4-------4-------3-------3-------4-------4-------4-------4---
G-------------------3---3---3---3---3---3---3---3---3---3---3---3-
D---6---6---6---6-----------------1---------------1---------------
A-----------------1-----------------------------------------------
E-4---------------------------------------------------------------

Jesús eres el mejor testigo del amor que te profeso
e---------3---------------1---------------3-----------------------
B-----4-------4-------3-------3-------4-------4-------4-------3---
G---3---3---3---3---3---3---3---3---5---5---5---5---5---5---3---3-
D-1---------------------------------------------------------------
A-----------------1---------------3---------------3-------1-------
E-----------------------------------------------------------------

tengo la conciencia tranquila por eso no me confieso
e---------4---------------1---------------3---------------3-------
B-----4-------4-------3-------3-------4-------4-------4-------4---
G-------------------3---3---3---3---3---3---3---3---3---3---3---3-
D---6---6---6---6-----------------1---------------1---------------
A-----------------1-----------------------------------------------
E-4---------------------------------------------------------------

rezando 3 padres nuestros el asesino no revive a su muerto
e---------4-------------------------------------------------------
B-----4-------4-----------6-------------------------------4-------
G---------------------7-------7-------8-------7-------5-------5---
D---6---6---6---6---8---8---8---8---8---8---8---8---5---5---5---5-
A---------------------------------6-------5-------3---------------
E-4---------------6-----------------------------------------------

Jesús hermanos míos es verbo no sustantivo
e---------4---------------1-------------3-
B-----4-------4-------3-------3-------4-4-
G-------------------3---3---3---3---3---3-
D---6---6---6---6-----------------1-----1-
A-----------------1---------------------1-
E-4-------------------------------------1-

e----------------------13-15-18-18-------------18-16-15-16-
B----------11-11----11----------------------11-------------
G----10-12----------------------------10-12----------------
D-13-------------13----------------13----------------------
A----------------------------------------------------------
E----------------------------------------------------------

e----------------16-15-13-15-------------12-13-15-16-
B----------11-13----------------------11-------------
G----10-12----------------------10-12----------------
D-13-------------------------13----------------------
A----------------------------------------------------
E----------------------------------------------------

e-18-18-15-15-12-12-9-9-6-6-3-3-0-0-------------5-2---0-----0-
B-----------------------------------2-3-------------3---2-3---
G-18-18-15-15-12-12-9-9-6-6-3-3-0-0---------3-4---------------
D---------------------------------------4-6-------------------
A-------------------------------------------------------------
E-------------------------------------------------------------

Jesús no bajes a la tierra, quédate ahí arriba
e---------2----------------0---------------2-----------------------
B-----3-------3--------2-------2-------3-------3-------3-------2---
G---2---2---2---2----2---2---2---2---4---4---4---4---4---4---2---2-
D-0----------------------------------------------------------------
A------------------0---------------2---------------2-------0-------
E------------------------------------------------------------------

todos los que han pensado como tu están boca arriba
e---------3---------------0---------------3---------------3-------
B-----3-------3-------2-------2-------3-------3-------3-------3---
G---0---0---0---0---2---2---2---2---2---2---2---2---2---2---2---2-
D---------------------------------0---------------0---------------
A-----------------0-----------------------------------------------
E-3---------------------------------------------------------------

olvidados en algún cementerio de equipaje sus ideales
e---------3---------------0-------------2--------0-2-
B-----3-------3-------2-------2-------3--------2---3-
G---0---0---0---0---2---2---2---2---2--------2-----4-
D---------------------------------0----------------4-
A-----------------0------------------------4-------2-
E-3------------------------------------------------2-

   G                              A
murieron con la sonrisa en los labios por que fueron

verbo y no sustantivo.
                  e-10-3-2-
                  B------3-
                  G------2-
                  D--0---0-
                  A------0-
                  E------0-

sUgErEnCiAs A mI CoRrEo

            
            
Suggest correction
Creating personal tab
Creating personal tab
You can edit any tab online and save it as your Personal.

You can edit, replace or remove any tab part or add personal notes – all changes will be seen only by you.

Personal tabs can be accessed anytime from any device, even offline.
Learn more »
Give kudos to tab author, rate the tab!
1 2 3 4 5
comments
print report bad tab
guest
Wanna post a correction for this tab? Suggest correction