Oops, an error
Loading. Please wait.

La Mujer Que No Soñé tab

version 2
version 2

Whole song

Interactive

62 views 1 this week
no commentswrite comment
1 2 3 4 5
3 more votes to show rating
add to favorites
×
Save as Personal and add changes to this tab that will be seen only by you. Learn more ›
×
You can save this tab as Personal to edit and correct it or add notes. All changes will be seen only by you. Learn more »
launch autoscroll
font size
0
reset
how to read this tab
guitar tuner
edit
Autoscroll
slow
fast
+/-
esc
set tempo
stop
Dedicada a Ana Karen la chava mas hermosa, linda e
inteligente que haya visto jamas... aunque ella
por ahora esta en Canada, espero que regrese pronto
poque aqui la extrañamos mucho.

INTRO(REQUINTO):

E---2/4--3---3/5--6--5--6-----------------------------
B---------------------------2/4--3--3--3/1------------
G-----------------------------------------------------
D-----------------------------------------------------
A-----------------------------------------------------
E-----------------------------------------------------

La de lentes la pasada de moda
La aburrida la intelectual
La que prefiere una biblioteca a una discoteca

E---------------------------------------3/5-6---------
B----------------------------------------------5-5/3--
G-----------------------------------------------------   Req 1
D-----------------------------------------------------
A-----------------------------------------------------
E-----------------------------------------------------
Es con la que vivo yo
E-----------3/5---------------------------------------
B-----------------3/5--(5/3-3/1)--mas lento-----------
G-----------------------------------------------------   Req 2
D-----------------------------------------------------
A-----------------------------------------------------
E-----------------------------------------------------

La que todos tachan de fea
E---------------------------5/8---7/5--4--------------
B--------------------------5--------------------------
G-----------------------------------------------------   Req 3
D-----------------------------------------------------
A-----------------------------------------------------
E-----------------------------------------------------
Y en el bus nadie le ceda el lugar
La que es mas que una precea para enseñar

E-----------------------------------------------------
B--------------*1*--1/3--*3*--3/5--*5*--5/7--7-7--7/9-
G-----------------------------------------------------   Req 4
D-----------------------------------------------------
A-----------------------------------------------------
E-----------------------------------------------------

Jamas sera modelo de television
E-----------------------------------------------------
B--------7/9--8----------1-------3-------5-------8/10-
G-------------------0/1-----0/1-----0/1-----0/1-------   Req 5
D-----------------------------------------------------
A-----------------------------------------------------
E-----------------------------------------------------

Porque aun no hacen anuncias para el corazon
E-------------------------------------0---------------
B----------------8/10--8--------1--3------------------
G-----------------------------------------------------   Req 6
D-----------------------------------------------------
A-----------------------------------------------------
E-----------------------------------------------------

Me gusta porque es autentica y vive sin recetas
    Dm7       G         C
E---1-----------3-------------0-----------------------
B----1---------3--------1--3--------------------------
G-----2-------0---------------------------------------   Req 7
D-----------------------------------------------------
A-----------------------------------------------------
E-----------------------------------------------------
de esas que tratan de vestir al amor de etiqueta
     Dm7              G             C
E------1----------------3------------------0----------
B-----1----------------3-------------1--3-------------
G----2----------------0-------------------------------   Req 8
D-----------------------------------------------------
A-----------------------------------------------------
E-----------------------------------------------------

He venido a parar con la mujer que no soñe jamas
   Dm7     G
E----1-----3------------------------------------------
B---1-------3------------------------0/1--1--1--1/3---
G--2---------0----------------------------------------   Req 9
D-------------0---------------------------------------
A-----------------------------------------------------
E-----------------------------------------------------

Pero tambien jamas...
fui tan feliz

La que ya ni se pinta la boca
de fraudada de coquetear
la que es mas que una aguja para enebrar
E----------------------------1/3--2------------2/4--3-
B------------------------------------4--3/2--2--------
G-----------------------------------------------------
D-----------------------------------------------------
A-----------------------------------------------------
E-----------------------------------------------------
si su enemigo parece acechando al espejo
Req 8(sin lo ultimo)  Req 5 (sin lo primero)

ella le da una sonrisa y aniquila el complejo
  ---------------Req 8---------------

me gusta porque es autentica y vive sin recetas...

Un numero encerrado entre parentesis significa
que la cuarda no se pisa solo se pone el dedo.
Aun no he terminado el final pero espero subirlo proximamente.

Dudas, sugerencias, comentarios, correciones (¿porque no?), a mi correo.

            
            
Suggest correction
Creating personal tab
Creating personal tab
You can edit any tab online and save it as your Personal.

You can edit, replace or remove any tab part or add personal notes – all changes will be seen only by you.

Personal tabs can be accessed anytime from any device, even offline.
Learn more »
Give kudos to tab author, rate the tab!
1 2 3 4 5
comments
print report bad tab
guest
Wanna post a correction for this tab? Suggest correction