Oops, an error
Loading. Please wait.

Lo Poco Que Queda De Mí tab

34 views 1 this week
no commentswrite comment
1 2 3 4 5
3 more votes to show rating
add to favorites
×
Save as Personal and add changes to this tab that will be seen only by you. Learn more ›
×
You can save this tab as Personal to edit and correct it or add notes. All changes will be seen only by you. Learn more »
launch autoscroll
font size
0
reset
how to read this tab
guitar tuner
edit
Autoscroll
slow
fast
+/-
esc
set tempo
stop
Esta canción esta dedicada a la chava mas preciosa, que con palabras de ARJONA
Le digo lo que siento, es para ti. ROSALINDA   

                                                            
E||--8--------8--|--9--------9---|--11------------|-----------|
B||--4-----------|--6------------|--9----------9--|-----------|
G||--------5--8--|--------6--10--|----------8-----|-----------|
D||--------------|---------------|----------------|--6--------|
A||-----6--------|-----8---------|------11--------|-----------|
E||--4-----------|--6------------|--8-------------|-----------|


                                                                   
--13-------------|--13------15--13--|--11-----------|---------6-8-|
--11---------11--|------------------|---------------|--9----------|
---------10------|------10----------|----------8----|-------------|
------8----------|------------------|---------------|-------------|
-----------------|------------------|------11-------|-------------|
--9--------------|------------------|--8------------|-------------|


                                                                           
--9-----8-----|--6-----4-----|--4--------4--|--3--------3--|--------------|
--------------|--------------|--------------|--2-----2-----|--------1--4--|
--6-----------|-----6-----6--|--6-----6-----|--------------|--------------|
--------6--6--|--------------|--------------|-----1--------|-----1--------|
-----8--------|--------------|--------------|--------------|--------------|
--6-----------|--------------|-----6--------|--------------|--4-----------|


                                                                            
--4--------4--|--11-----------|--4--------4--|--------------|--4--------4--|
--------4-----|------------2--|-----1--2-----|--4--------4--|--------4-----|
-----5--------|---------5-----|--------------|--------5-----|-----5--------|
--------------|------3--------|--------------|--------------|--------------|
-----------6--|---------------|--------------|-----6--------|-----------6--|
--------------|--4------------|--------------|--4-----------|--------------|


                                                                            
--11-----------|--4--------4--|--6-----------|--6-----------|--4-----------|
------------2--|-----1--2-----|-----------4--|-----------4--|-----------2--|
---------5-----|--------------|--------3-----|--------3-----|--------1-----|
------3--------|--------------|--------------|--------------|--------------|
---------------|--------------|-----6--------|-----6--------|-----4--------|
--4------------|--------------|--3-----------|--------------|--1-----------|


                                                                         
--1-----------|--------------|--------------|--------------|--4---------|
-----------2--|--4-----------|--------------|--2-----1--2--|------------|
--------1-----|--5--------3--|--5-----3--5--|--------------|------------|
--------------|--------6-----|-----6--------|-----3--------|-----3------|
-----4--------|-----6--------|--------------|--------------|------------|
--------------|--4-----------|-----------4--|--4-----------|------------|


                                                                              
--11-----------|--4--------4--|--11-----------|--4--------4--|--11-----------|
------------4--|--------4-----|------------2--|-----1--2-----|--4---------4--|
---------5-----|-----5--------|---------5-----|--------------|---------5-----|
---------------|--------------|------3--------|--------------|---------------|
------6--------|-----------6--|---------------|--------------|------6--------|
--4------------|--------------|--4------------|--------------|--4------------|


                                                                             
--4--------4--|--------------|--4--------4--|--6-----------|--11------------|
--------4-----|-----------2--|-----1--2-----|-----------4--|----------------|
-----5--------|--6-----5-----|--------------|--------3-----|-------------8--|
--------------|-----3--------|--------------|--------------|----------8-----|
-----------6--|--------------|--------------|-----6--------|----------------|
--------------|--4-----------|--------------|--3-----------|------11--------|


                                                                                
--8--9----------|-----------------|--------------|--4-----------|-----------6--|
--------9-------|-----------------|--------------|--------------|--------------|
------------10--|-----------------|--5--------3--|-----1--3-----|--------3-----|
----------------|--11---------11--|--------6-----|-----------1--|-----1--------|
--------11------|---------11------|-----6--------|--------------|--------------|
--1--9----------|------9----------|--4-----------|--------------|--3-----------|


                                                                          
--------6-----|--4--------1--|--------------|-------------|-----1--------|
--------------|--------------|-----2--------|----------2--|--------2-----|
-----3--------|--------1-----|--------1-----|-------1-----|--1--------1--|
--------------|--------------|-----------3--|-------------|--------------|
--6--------6--|-----4--------|--4-----------|----4--------|--------------|
--------------|--1-----------|--------------|-------------|--------------|


                                                                          
--------------|--------4-----|--6-----------|-----6-------|--4-----------|
--------------|--1--4--------|-----------4--|-------------|-----------2--|
--------1--3--|-----------1--|--------3-----|-------------|--------1-----|
-----1--------|--------------|-----1--------|--1----------|--------------|
--------------|--------------|--------------|----------6--|-----4--------|
--4-----------|--------------|--3-----------|-------------|--1-----------|


                                                                         
-----------|--4--------4--|--3--------3--|--------------|--11-----------|
-----------|--------------|--2-----------|--4--------1--|---------9-----|
-----------|--------1-----|--------3-----|--------1-----|------8-----8--|
-----------|--------------|-----1--------|-----1--------|---------------|
--------4--|-----4--------|--------------|--------------|------------6--|
-----------|--------------|--------------|--4-----------|---------------|


                                                                               
--11-----------|--4-----------|--11-----------|--11------------|--4-----------|
---------------|--------------|------------4--|----------------|-----------2--|
---------6--5--|-----5--6-----|---------5-----|----------8-----|--------5-----|
---------------|-----------3--|---------------|------10--------|-----3--------|
------8--------|--------------|------6--------|-------------6--|--------------|
--4------------|--------------|--4------------|----------------|--4-----------|


                                                                           
--4--------|--------------|--------------|-----------4--|--11-------------|
-----------|--4-----------|--------4-----|--------------|--------------9--|
-----------|-----------3--|--5-----------|--6-----5-----|-----------------|
-----------|--------6-----|-----6-----6--|-----3--------|------10--11-----|
-----------|-----6--------|--------------|--------------|-----------------|
-----------|--4-----------|--------------|--4-----------|-----------------|


                                                                              
--------------|--4--------4--|--------------|--11-------------|--------------|
--------------|--------------|--------1--2--|--------------9--|-----------4--|
--------5--6--|-----5--6-----|--------------|-----------------|--------3-----|
--------------|--------------|-----3--------|------10--11-----|-----1--------|
-----6--------|-----------6--|--------------|-----------------|--------------|
--4-----------|--------------|--4-----------|-----------------|--3-----------|


                                                                        
--6--------6--|--9----------|------------|--------------|--------------|
--------------|-------------|------------|--4-----------|--------4-----|
--------3-----|--------1----|------------|--5--------3--|--5--------5--|
--------------|-------------|-------3----|--------6-----|-----6--------|
-----6--------|-----4-------|----4-------|-----6--------|--------------|
--------------|--1----------|------------|--4-----------|-----------4--|


                                                                          
--------4-----|--------4----|--4-----------|--8--------4--|--9-----------|
--------4-----|-------------|-----------4--|--------4-----|-----------2--|
--6--------5--|--6----------|--------5-----|-----5--------|--------5-----|
-----3--6-----|-----3-------|--------------|--------------|-----3--------|
--------------|-------------|-----6--------|-----------6--|--------------|
--4-----------|-------------|--4-----------|--------------|--4-----------|


                                                                               
--4----4----4--|--------------|--8--------8--|--9-----------|--4--------15-16-|
-----1---2-----|--------1--4--|--------4-----|--------------|-----------------|
---------------|--------------|-----5--------|--------5--6--|-----5--6--------|
---------------|-----1--------|--------------|--------------|-----------------|
---------------|--------------|-----------6--|-----8--------|-----------------|
---------------|--4-----------|--------------|--4-----------|-----------------|


                                                                       
--18------15------|--11--------------|--16-----13----|--9-------------|
------------------|----------11------|---------------|--------9-------|
------------------|------------------|---------------|----------------|
--------------13--|--------------13--|---------------|------------11--|
----------13------|----------13------|------4--11----|--------11------|
--3---11----------|------11----------|--1------------|-----9----------|


                                                                         
--4-----------|--------------|--6-----------|-------6----|--4-----------|
--------------|--------4-----|-----------4--|------------|-----------2--|
-----------3--|--5-----------|--------3-----|------------|--------1-----|
--------6-----|-----6--------|--------------|--1---------|--------------|
-----6--------|-----------6--|-----6--------|------------|-----4--------|
--4-----------|--------------|--3-----------|------------|--1-----------|


                                                                         
--------4----|-------------|--------------|--------------|--------------|
-------------|----------2--|--------2-----|--------------|--1-----4-----|
-----1-------|-------1-----|-----1--------|--------1--3--|-----1--------|
-------------|-------------|--------------|-----1--------|-----------1--|
--4----------|----4--------|--4--------4--|--------------|--------------|
-------------|-------------|--------------|--4-----------|--------------|


                                                                    
--6-----------|-----------|--4-----------|----------|--4--------4--|
-----------4--|-----------|-----------2--|----------|--------------|
--------3-----|-----------|--------1-----|----------|--------------|
-----1--------|--1--------|--------------|----------|--------6-----|
--------------|-----------|-----4--------|----------|-----4--------|
--3-----------|-----------|--1-----------|----------|--------------|


                                                                          
--3----------|--4-----------|--------1-----|--6-----------|-----6--------|
--2----------|--------------|--1--4--------|-----------4--|--------4-----|
--------3----|--------1--3--|-----------3--|--------3-----|--------------|
-----1-------|-----1--------|--------------|--------------|--1-----------|
-------------|--------------|--------------|-----6--------|-----------6--|
-------------|--4-----------|--------------|--3-----------|--------------|


                                                                           
--4-----------|--------4-----|--1-----------|-----1--------|--------------|
-----------2--|--------------|-----------2--|--------------|--4-----------|
--------1-----|-----1-----1--|--------1-----|--------1-----|--5--------3--|
--------------|--------------|--------------|--------------|--------6-----|
-----4--------|--4-----------|-----4--------|--4--------4--|-----6--------|
--1-----------|--------------|--------------|--------------|--4-----------|


                                                                         
--------6-----|--6-----------|-------------|--4-----------|-------------|
-----4--------|--6--------4--|-----4-------|-----------2--|--------2----|
--5-----------|--8-----3-----|-------------|--------1-----|-----1-------|
--------------|--------------|--1-------1--|--------------|-------------|
-----------6--|-----6--------|-------------|-----4--------|--4----------|
--------------|--3-----------|-------------|--1-----------|-------------|


                                                                           
--1-----------|--------------|--------------|--6-----------|--4-----------|
-----------2--|--------2-----|--4--------4--|-----------4--|-----------2--|
--------1-----|-----1--------|-----3--5-----|--------3-----|--------1-----|
--------------|-----------1--|--------------|--------------|--------------|
-----4--------|--4-----------|--------------|-----6--------|-----4--------|
--------------|--------------|--4-----------|--3-----------|--1-----------|


                                                                           
-----4--------|-----------6--|--------------|--4-----------|--------4--1--|
--------------|--4-----------|-----4--------|-----------2--|--------------|
--------1-----|--3-----3-----|--------3-----|--------1-----|-----1--------|
--------------|-----1--------|-----------1--|--------------|--------------|
--4--------4--|--------------|--6-----------|-----4--------|--4-----------|
--------------|--3-----------|--------------|--1-----------|--------------|


                                                                              
-------------|-----1--------|--------------|------------6--4-|---------------|
----------2--|--------2-----|--4-----------|----4------------|----------2----|
-------1-----|--------------|-----------3--|---------3-------|-------1-------|
-------------|--------------|--------6-----|------1----------|---------------|
----4--------|--4--------4--|-----6--------|-----------------|----4--------4-|
-------------|--------------|--4-----------|--3------------1-|---------------|


                                                                   
-------4-------|--------------|----------|-----------|------------|
-------------2-|----------2---|----------|-----------|------------|
----1----------|-------1------|----------|-----------|------------|
---------------|--------------|----------|-----------|------------|
----------4--4-|----4---------|----------|-----------|------------|
---------------|--------------|----------|-----------|----------4-|


                                                                                
---------------|-------6-----6-|---------------|----6--------4-|---------------|
-------------1-|----4----------|----------4----|---------------|----------2----|
-------1--3----|---------------|-------3-------|-------3-------|-------1-------|
----1----------|---------------|-------------1-|----------1----|---------------|
---------------|----------6----|----6----------|---------------|----4--------4-|
---------------|-------------3-|---------------|-------------1-|---------------|


                                                                               
----4----------|----------|----------|-----------|------------|-------------4-|
-------------2-|----------|----------|-----------|------------|-------1--4----|
-------1-------|----------|----------|-----------|------------|---------------|
---------------|----------|----------|-----------|------------|----1----------|
----------4--4-|----------|----------|-----------|------------|---------------|
---------------|----------|----------|-----------|----------4-|---------------|


                                                                               
-------8--11--13-|---------------13-|------15------13-----11-|--------------4-|
-----------------|------------------|------------------------|--------------4-|
----5------------|--------10--------|------------------------|--------8-------|
--------------0--|------------8-----|----8-----15------------|-----------6----|
-----------------|----13------------|-----------------13-----|----11----------|
-----------------|---------------9--|---------------------8--|----------------|


                                                                 
----------6-8-9-|-------8-----6-|-------4-----8-|-------------2-|
-------4--------|---------------|---------------|----------4----|
----------------|-------6-----6-|-------6-------|-------5-------|
----6-----------|---------------|----------3----|----4----------|
----------------|----8-----8----|----8--------0-|---------------|
--------------6-|---------------|---------------|---------------|


                                                                     
----------2--5-|-------6-----13-|-------15------11-|--------------4-|
----1--4-------|----------------|------------------|--------------4-|
---------------|-------3--------|------------------|--------8-------|
---------------|----3-----3-----|------------------|-----------6----|
---------------|----------------|----6--13---------|----11----------|
-------------4-|-------------3--|-----------11--8--|----------------|


                                                                 
----------6-8-9-|----------8----|----6-----4--4-|-------------3-|
-------4--------|---------------|---------------|---------------|
----------------|----6--------6-|---------------|-------6-------|
----6-----------|-------6-------|-------6-------|-------6-------|
----------------|----8-----8----|----8----------|---------------|
--------------6-|---------------|----------6----|----6-----6----|


                                                                     
---------------|-------------4-|-------8--11--13-|---------------13-|
----------2--4-|-------1--4----|-----------------|------------------|
-------0-------|-------------5-|-----------------|--------10--------|
---------------|----1----------|--------------0--|------------8-----|
----1----------|---------------|----6------------|----13------------|
-------------4-|---------------|-----------------|---------------9--|


                                                                            
-------18------15-----11-|--------------4-|----------6-8-9-|-------8-----6-|
-------------------------|--------------4-|-------4--------|---------------|
----10-------------------|--------8-------|----------------|-------6-----6-|
------------------15-----|-----------6----|----6-----------|---------------|
-------------------------|----11----------|----------------|----8-----8----|
-----------18---------8--|----------------|--------------6-|---------------|


                                                                 
-------4-----8-|----------2--8-|-------------5-|-------6-----13-|
---------------|---------------|-------7-------|----------------|
-------6-------|-------5-------|----5----------|-------3--------|
----------3----|----4----------|----------4----|----3-----3-----|
----8--------0-|---------------|---------------|----------------|
---------------|---------------|-------------4-|-------------3--|


                                                                     
-------15------11-|--------------4-|----------6-8-9-|----------8----|
------------------|----------------|-------4--------|---------------|
------------------|--------8-------|----------------|----------6----|
-----------13-----|-----------6----|----6-----------|-------6-----6-|
----6--13---------|----11----------|----------------|----8-----8----|
---------------8--|----------------|--------------6-|---------------|


                                                                 
----6-----4--4-|-------------3-|-------------4-|-------------11-|
---------------|-------2-------|-------2-------|-------1--4-----|
---------------|---------------|---------------|----------------|
---------------|----1-----1----|----1-----1----|----1-----------|
---------------|---------------|---------------|----------------|
-------6-------|---------------|-------------4-|----------------|


                                                                     
---------------11-|-------------4-|----------4--11-|-------------11-|
-----------9------|---------------|----------------|----------4-----|
--------8---------|-------5--6----|----5--6--------|-------5--------|
----10------------|---------------|----------------|----------------|
------------------|----8----------|----------------|----6-----------|
-----------11--4--|---------------|-------------4--|----------------|


                                                                    
---------------11-|-------------4-|----------4--6-|-------------11-|
-----------9------|---------------|---------------|----------4-----|
--------8---------|-------5--6----|----5--6-------|-------3--------|
----10------------|---------------|---------------|----------------|
------------------|----8----------|---------------|----6-----------|
-----------11--4--|---------------|-------------3-|----------------|


                                                                      
--------------8-|----9-------------|-----------------|---------------|
----------------|-------9----------|---------------4-|---------------|
-----------8----|-----------10-----|---------------5-|----------3--5-|
--------8-------|---------------11-|-----------11----|-------6-------|
----------------|-------11---------|-------11--------|----6----------|
----11--------1-|----9-------------|----9----------4-|---------------|


                                                                  
---------------|-------------11-|----------------|---------------|
-------4-------|----------2-----|--------------4-|----------4----|
----------5--6-|-------5--------|----------------|-------5-------|
----6--------6-|----3-----------|----10--11------|-------------6-|
---------------|----------------|----------------|----6----------|
----------4--4-|----------------|--------------4-|---------------|


                                                                 
-------4-----4-|-------------4-|----------4--11-|-------------4-|
----4-----4----|-------1--2----|----1--2-----4--|----------4----|
---------------|---------------|----------------|-------5-------|
---------------|----3----------|----------------|---------------|
----------6----|---------------|----------------|----6----------|
-------------4-|---------------|-------------4--|---------------|


                                                                         
----------4--11-|-------------4-|----------15-16-18-|--------15------11-|
-------4--------|----------2----|----1--2-----------|-------------------|
----5-----------|-------5-------|-------------------|-------------------|
----------------|----3----------|-------------------|------------13-----|
----------6-----|---------------|-------------------|--------13---------|
-------------4--|---------------|----------------3--|----11-------------|


                                                                      
----------------16-|-------13----9-|---------------4-|---------------|
--------11---------|---------------|-------9---------|---------------|
-------------------|---------------|-----------------|----------3--5-|
------------13-----|---------------|-----------11----|-------6-------|
--------13---------|----4--11------|-------11--------|----6----------|
----11----------1--|---------------|----9----------4-|---------------|


                                                                             
-------------6-|---------------|-------6----4-|---------------|-------4-----|
-------4-------|----------4----|--------------|----------2----|-------------|
---------------|-------3-------|--------------|-------1-------|----1--------|
----6----------|-------------1-|--------------|---------------|-------------|
----------6----|----6----------|--------------|----4--------4-|-------------|
-------------3-|---------------|------------1-|---------------|-------------|


                                                                                
---------------|---------------|---------------|-------------6-|---------------|
----------2----|-------2-------|-------------1-|-------4-------|----------4----|
-------1-------|----1----------|-------1--3----|----1----------|-------3-------|
---------------|---------------|----1----------|----------1----|----1--------1-|
----4--------4-|----------4----|---------------|---------------|---------------|
---------------|-------------4-|---------------|-------------3-|---------------|


                                                                        
----------4-|--------------|----------4-|----------4--3-|------------4-|
------------|----------2---|------------|-------------2-|--------------|
------------|-------1------|------------|-------1-------|-------3------|
------------|--------------|------------|---------------|----1---------|
------------|----4---------|------------|----4----------|--------------|
----------1-|--------------|------------|---------------|------------4-|


                                                                                
---------------|-------1-----6-|---------------|----6--------4-|---------------|
-------------1-|----4----------|----------4----|-------4-------|----------2----|
-------1--3----|----------3----|-------3-------|---------------|-------1-------|
----1----------|---------------|-------------1-|---------------|---------------|
---------------|---------------|----6----------|----------6----|----4--------4-|
---------------|-------------3-|---------------|-------------1-|---------------|


                                                                                
-------4-----1-|---------------|----1----------|---------------|-------6-----6-|
---------------|----------2----|-------------4-|---------------|----4--------6-|
----1-----1----|-------1-------|-------1-----5-|----------3--5-|-------------8-|
---------------|---------------|---------------|-------6-------|---------------|
---------------|----4--------4-|----------4----|----6----------|----------6----|
---------------|---------------|-------------4-|---------------|-------------3-|


                                                                              
---------------|------------4-|---------------|------------1-|---------------|
----------4----|----4---------|----------2----|-------2------|----------2----|
-------3-------|--------------|-------1-------|----1---------|-------1-------|
-------------1-|---------1----|---------------|--------------|---------------|
----6----------|--------------|----4--------4-|--------------|----4--------4-|
---------------|------------1-|---------------|--------------|---------------|


                                                                                
---------------|-------------6-|-------------4-|---------------|----4----------|
-------2-----4-|----------4----|----------4----|----------2----|-------------4-|
----1----------|----3--5-------|-------3-------|-------1-------|-------1-----3-|
----------1----|---------------|---------------|---------------|---------------|
---------------|---------------|----6----------|----4--------4-|----------4----|
-------------4-|-------------3-|-------------1-|---------------|-------------3-|


                                                                               
----------6----|-------------4-|---------------|-------4--1---|---------------|
---------------|----4----------|----------2----|--------------|----------2----|
-------3-------|-------3-------|-------1-------|----1---------|-------1-------|
----1----------|----------1----|---------------|--------------|---------------|
-------------6-|---------------|----4--------4-|--------------|----4--------4-|
---------------|-------------1-|---------------|--------------|---------------|


                                                                                
----1----------|---------------|------------6--|---4-----------|---------4-----|
-------2-----4-|---------------|---4-----------|------------2--|---------------|
---------------|----------3----|---------3-----|---------1-----|------1--------|
---------------|-------6-------|------1--------|---------------|---------------|
----------4----|----6----------|---------------|------4--------|---4--------4--|
-------------4-|-------------3-|---------------|---1-----------|---------------|


                                                                  
---------------|----------|----------|-----------|---------------|
---2--------2--|----------|----------|-----------|---------------|
---------1-----|----------|----------|-----------|------------3--|
---------------|----------|----------|-----------|---------6-----|
---4--4--------|----------|----------|-----------|------6--------|
---------------|----------|----------|-----------|---4-----------|


                                                                                
---------6-----|---6-----------|------6--------|---4-----------|------4--------|
------4--------|------------4--|---------------|------------2--|---------------|
---5-----------|---------3-----|---------3-----|---------1-----|---------1-----|
---------------|---------------|---1--------1--|---------------|---------------|
------------6--|------6--------|---------------|------4--------|---4--------4--|
---------------|---3-----------|---------------|---1-----------|---------------|


                                                                                
------------|----------|----------|-----------|---------------|---4-----8--11--|
---2--------|----------|----------|-----------|------------4--|----------------|
------------|----------|----------|-----------|---------5-----|------5---------|
------------|----------|----------|-----------|---------------|----------------|
---4--------|----------|----------|-----------|------6--------|----------------|
------------|----------|----------|-----------|---4-----------|----------------|


                                                                                
---13-------------|---13----18------15-----|---11------------|---4--------6-8--|
------------------|------------------------|-----------------|---4-----4-------|
-----------10-----|------------------------|-----------8-----|-----------------|
---0-----------8--|-------8-----15---------|--------------6--|------6----------|
-------13---------|--------------------13--|-------11--------|-----------------|
------------------|---9--------------------|---8-------------|-----------------|


                                                                
---9-----8-----|---6-----4-----|---4-----------|---3-----------|
---------------|---------------|---------2-----|------------2--|
---------6-----|---6-----6-----|------1-----1--|---------0-----|
---------------|------------3--|---------------|------1--------|
------8-----8--|------8--------|------1--------|---------------|
---6-----------|---------------|---------------|---------------|


                                                
-------------4-------|-------28----|----------||
-----------1---------|-------21----|----------||
-------1-3-----------|-------------|----------||
-----1---------------|-------------|----------||
---------------------|-------------|----------||
---4-----------------|--4----------|----------||
Suggest correction
Creating personal tab
Creating personal tab
You can edit any tab online and save it as your Personal.

You can edit, replace or remove any tab part or add personal notes – all changes will be seen only by you.

Personal tabs can be accessed anytime from any device, even offline.
Learn more »
Give kudos to tab author, rate the tab!
1 2 3 4 5
comments
print report bad tab
guest
Wanna post a correction for this tab? Suggest correction