Oops, an error
Loading. Please wait.

Sólo tab

7 views 1 this week
no commentswrite comment
1 2 3 4 5
3 more votes to show rating
add to favorites
×
Save as Personal and add changes to this tab that will be seen only by you. Learn more ›
×
You can save this tab as Personal to edit and correct it or add notes. All changes will be seen only by you. Learn more »
launch autoscroll
font size
0
reset
how to read this tab
guitar tuner
edit
Autoscroll
slow
fast
+/-
esc
set tempo
stop
Esta rola esta buena pá tocarla y pá cantarla- - >
y deverian hacer las transcripciones bien,no al abenton
que pues miles de personas entran a esta pagina para ver
como se tocan y las encuentran  mas atencion
a sus  todo este esfuerzo se lo quiero
dedicar de corazon a Tere!! una super amiga que hace posible
que este aun vivo y de pie...Poeta s!n letras....


Intro

1.-----------(0)-----------
2.--------(3)---(3)---(3)--
3.-----(2)---------(2)----- G                   D   G                   D   G                      A/A7/Asus4-D-Dsus4-D-Dsus2-D
 Cinco años no son pocos y menos para este loco que entre mas pasa el tiempo mas te ama
D                          E7                      A
 y hoy estoy solo como un niño en un asilo de ancianos
D                E7                      A
 solo como un anillo para un hombre sin manos
F#             Bm                                    A
 solo como Fidel caminando por la acera del Wall Street
D                   E7                  A
 solo como Octavio Paz en una disco de moda
D               E7                     A
 solo como se siente sin amantes la alcoba
F#              Bm              E7                         A
 solo como mis padres desde el mismo dia en que decidi partir.


1.----------(0)-------------------(0)------------------(0)-------------------(0)----------
2.-------(3)---(3)--(3)--------(3)---(3)---(3)------(3)---(3)---(3)-------(3)---(3)---(3)-
3.----(2)---------(2)-------(2)---------(2)------(2)---------(2)-------(2)---------(2)----
4.--(0)-----------------------------------------------------------------------------------
5.-----------------------(4)------------------(3)-------------------(2)-------------------
6.----------------------------------------------------------------------------------------
 Solo,                     uh   uh   uh   uh    uh   uh   uh   uh    uh  uh  uh  uh

1.----------(0)-------------
2.-------(3)---(3)---(3)----
3.----(2)---------(2)------- G                     D  G                   D   G                      A/A7/Asus4-D-Dsus4-D-Dsus2-D
 cinco años no son pocos y menos para este loco que entre mas pasa el tiempo mas te ama
D                          E7                     A
 y hoy estoy solo como un niño en un asilo de ancianos
D                E7                       A
 solo como un anillo para un hombre sin manos
F#            Bm                                     A
 solo como Fidel caminando por la acera del Wall Street
D                  E7                    A
 solo como Octavio Paz en una disco de moda
D               E7                     A
 solo como se siente sin amantes la alcoba
F#              Bm              E7                          A
 solo como mis padres desde el mismo dia en que decidi partir

1.----------(0)---------------------(0)--------------------(0)--------------------(0)----------
2.-------(3)---(3)---(3)---------(3)---(3)---(3)--------(3)---(3)---(3)--------(3)---(3)---(3)-
3.----(2)---------(2)---------(2)---------(2)--------(2)---------(2)--------(2)---------(2)----
4.-(0)-----------------------------------------------------------------------------------------
5.------------------------(4)---------------------(3)--------------------(2)-------------------
6.---------------------------------------------------------------------------------------------
  Solo, uh  uh  uh  uh           uh  uh  uh   uh     uh     uh      uh       uh    uh     uh

1.----------(0)---------------------(0)-------------------(0)----------------(0)------------------(0)----------
2.-------(3)---(3)---(3)---------(3)---(3)---(3)-------(3)---(3)----------(3)---(3)---(3)------(3)---(3)---(3)-
3.----(2)---------(2)---------(2)---------(2)-------(2)---------(2)----(2)---------(2)------(2)---------(2)-----
4.-------------------------(0)-------------------(0)----------------(0)------------------(0)--------------------
5.-(1)----------------------------------------------------------------------------------------------------------
6.--------------------------------------------------------------------------------------------------------------


E7=020100
F#=244322
Bm=224432
Asus4=002230
A=002220
Dsus4=000233
Dsus2=000230
D=000232
A7=002020

Saludos a Tere!! Poeta s!n letras

            
            
Suggest correction
Creating personal tab
Creating personal tab
You can edit any tab online and save it as your Personal.

You can edit, replace or remove any tab part or add personal notes – all changes will be seen only by you.

Personal tabs can be accessed anytime from any device, even offline.
Learn more »
Give kudos to tab author, rate the tab!
1 2 3 4 5
comments
print report bad tab
guest
Wanna post a correction for this tab? Suggest correction