Oops, an error
Loading. Please wait.

Sólo Con Un Beso tab

64 views 3 this week
no commentswrite comment
1 2 3 4 5
3 more votes to show rating
add to favorites
×
Save as Personal and add changes to this tab that will be seen only by you. Learn more ›
×
You can save this tab as Personal to edit and correct it or add notes. All changes will be seen only by you. Learn more »
launch autoscroll
font size
0
reset
how to read this tab
guitar tuner
edit
Autoscroll
slow
fast
+/-
esc
set tempo
stop
Intro   Riff 1  (2)

Riff 1
   C9                         Am
e--------0------------0--------------0------------0--------
B--3-1-----1----3-1-----1------3-1-----1----3-1-----1------
G------0-----0------0-----0--------2-----2------2-----2----
D----------------------------------------------------------
A--3------------3--------------0------------0--------------
E----------------------------------------------------------

   F                           G
e--0-----1------0-----1--------0-----0---------------------
B----1-----1------1-----1--------1-----1----3-0---3-0------
G------2-----2------2-----2--------0-----0------0-----0----
D----------------------------------------------------------
A----------------------------------------------------------
E--1------------1--------------3------------3--------------

C9
Juré que no iba a verte,
         Am
mucho menos enloquecerme,
         F
pero no sé, que has hecho en mí,
        G
Es tú veneno que lentamente.

Se apodera de mis deseos,
y me ahogan todos tus besos,
no puedo hablar, solo sentir,
como estremeces todo mi cuerpo.

PRE
          Am              Am/G
Y tú bien sabes que no fui yo,
          F              E7
no es culpable la situación,
            Am                Am/G
que quede claro por esta vez, oh!
          Dm    F      G
que solo eres tú, solamente tú.

CORO
        C                    G/B
La que con dulzura entiende mis palabras,
Am           Am/G
y ama mi locura,
        Dm             Dm/C                 Riff 2
LA que me DOm  a con una sonrisa,           B-0-1-3--
G/B                 Riff 2                  A---0-2--
pintada en sus labios.                      E-3------

           C               G/B
La que entrega todo sin pedirme nada,
Am           Am/G
sólo que la ame,
        Dm                F
la que en silencio logra todo en mí,
G               C   Am  F  G
sólo, con un beso.


Quisiera vestir tu cuerpo,
con caricias que llevo dentro,
y disfrutar, un poco más,
hasta perderme por un momento.

PRE

CORO  A  (Tono arriba = D)

        D                    A/C#
La que con dulzura entiende mis palabras,
Bm           Bm/A
y ama mi locura,
        Em             Em/D
la que me domina con una sonrisa,
A/C#
pintada en sus labios.

         D                 A/C#
La que entrega todo sin pedirme nada,
Bm            Bm/A
sólo que la ame,
        Em                G
La que en silencio logra todo en mí,
A               D   A/C#  Bm  Bm/A
sólo, con un beso.
 Em  A        D  A/C#  Bm  Bm/A  /E  D
sólo, con un beso.

            
            
Suggest correction
Creating personal tab
Creating personal tab
You can edit any tab online and save it as your Personal.

You can edit, replace or remove any tab part or add personal notes – all changes will be seen only by you.

Personal tabs can be accessed anytime from any device, even offline.
Learn more »
Give kudos to tab author, rate the tab!
1 2 3 4 5
comments
print report bad tab
guest
Wanna post a correction for this tab? Suggest correction