Oops, an error
Loading. Please wait.

A Varios Kilometros De Aquí bass

by Riff
73 views 3 this week
no commentswrite comment
1 2 3 4 5
3 more votes to show rating
add to favorites
×
Save as Personal and add changes to this tab that will be seen only by you. Learn more ›
×
You can save this tab as Personal to edit and correct it or add notes. All changes will be seen only by you. Learn more »
launch autoscroll
font size
0
reset
guitar tuner
edit
Autoscroll
slow
fast
+/-
esc
set tempo
stop
Tema no muy conocido de Riff de un disco también poco conocido. Figura
como tema final en ?Riff VII? en un mezcla de entrevistas y zapadas.
También esta en el disco ?Pappo en concierto? (1984) en donde hace mas
vueltas del solo y el bajo tiene un afinación un poco mas grave.
Esta transcripcion es una ?mezcla? de ambas versiones.
Espero que la disfruten.

Dejar pasar dos vueltas de la guitarra y después esto:

?                           ?pero no me importa verlos alli?
          (4 veces)                   (2 veces)
G|---------------------------|-------------------------|
D|---------------------------|-------------------------|
A|---------------------------|-0-0-0-3------0-0-0-3--2-|
E|-0-0-0-3------0-0-0-3---2--|-------------------------|
?No!?                       ?a varios kilómetros de aquí vivo yo!??
          (2 veces)                           (2 veces)
G|---------------------------|--------------------------------------------|
D|---------------------------|--------------------------------------------|
A|---------------------------|-4--4--4--4--5----7-7--7--------------------|
E|-0-0-0-3------0-0-0-3---2--|--------------------------------------------|

?Es?          ?su condicion ?pero no me importa verlos alli??
          (4 veces)                   (2 veces)
G|---------------------------|-------------------------|
D|---------------------------|-------------------------|
A|---------------------------|-0-0-0-3------0-0-0-3--2-|
E|-0-0-0-3------0-0-0-3---2--|-------------------------|
?No!?                       ?a varios kilómetros de aquí vivo yo!?
          (2 veces)
G|---------------------------|--------------------------------------------|
D|---------------------------|--------------------------------------------|
A|---------------------------|-4--4--4--4--5----7-7--7--------------------|
E|-0-0-0-3------0-0-0-3---2--|--------------------------------------------|
?a varios kilómetros de aquí vivo yo!, vivo yo!?
G|--------------------------------------------------------|
D|--------------------------------------------------------|
A|-4--4--4--4--5----7-7--7----------7-7--7----------------|
E|--------------------------------------------------------|
(aca empieza el solo de viola)
G|--------------------------------------------------------------------|
D|--------------------------------------------------------------------|
A|--------------------------------------------------------------------|
E|-5--5--5--5--5--5--5----1--1--1--1--1--1--1----2--2--2--2--2--2--2--|

G|------------------------|
D|------------------------|
A|------------------------|
E|-3--3--3--3--4--4--4--4-|

G|--------------------------------------------------------------------|
D|--------------------------------------------------------------------|
A|--------------------------------------------------------------------|
E|-5--5--5--5--5--5--5----1--1--1--1--1--1--1----2--2--2--2--2--2--2--|

G|---------------------------------------------------------------------|
D|------------------------------------------------------2--------------|
A|--------------------------------------------------------2-3-0-2------|
E|-3--3--3--3--4--4--4--4--5--------5-5--------5------------------3-5-2|
?                            ?pero no me importa verlos alli?
          (4 veces)                   (2 veces)
G|---------------------------|-------------------------|
D|---------------------------|-------------------------|
A|---------------------------|-0-0-0-3------0-0-0-3--2-|
E|-0-0-0-3------0-0-0-3---2--|-------------------------|
?No!?                       ?a varios kilómetros de aquí vivo yo!?
          (2 veces)
G|---------------------------|--------------------------------------------|
D|---------------------------|--------------------------------------------|
A|---------------------------|-4--4--4--4--5----7-7--7--------------------|
E|-0-0-0-3------0-0-0-3---2--|--------------------------------------------|
?a varios kilómetros? ?vivo yo!, vivo yo!?
                         (4 veces)
G|-----------------|-------------------|----------------------------------|
D|-----------------|-------------------|----------------------------------|
A|-4--4--4--4--5---|-7-7--7------------|----------------------------------|
E|-----------------|-------------------|-0-0-0-3--------------------------|
     (3 veces)     Final
G|----------------|-------------------------------------------------------|
D|-2--------------|-------------------------------------------------------|
A|---2-3-0-2------|-----2---3---0---2-------------------------------------|
E|-----------3-5-2|-0-------------------3---5---2---0-0-0-0-0-0-0-0-0-0...|

Nota:
... : lo puse para no poner todas las veces que se repite. Repitan la nota
      antecede a este signo las veces que quieran al final del tema.

La letra no la pude conseguir en ningun lado, solo puse algunas frases
que se escuchan en la versión de ?Pappo en concierto- 1984?

Mientras su musica se siga tocando y escuchando el carpo jamas morira,
vivira eternamente en la memoria de todos...
e-mail: zarathustra4321@

            
            
Suggest correction
Creating personal tab
Creating personal tab
You can edit any tab online and save it as your Personal.

You can edit, replace or remove any tab part or add personal notes – all changes will be seen only by you.

Personal tabs can be accessed anytime from any device, even offline.
Learn more »
Give kudos to tab author, rate the tab!
1 2 3 4 5
comments
print report bad tab
guest
Wanna post a correction for this tab? Suggest correction