Oops, an error
Loading. Please wait.

Arañas Y Ratas bass

by Riff
110 views 1 this week
no commentswrite comment
1 2 3 4 5
3 more votes to show rating
add to favorites
×
Save as Personal and add changes to this tab that will be seen only by you. Learn more ›
×
You can save this tab as Personal to edit and correct it or add notes. All changes will be seen only by you. Learn more »
launch autoscroll
font size
0
reset
guitar tuner
edit
Autoscroll
slow
fast
+/-
esc
set tempo
stop
G|--------------------------------------------
D|--------------------------------------------
A|-0----------0----------0----------0---------
E|--------------------------------------------

G|---------------------------------------------
D|---------------------------------------------  Parte
A|-0-0-0-0-0-0-0-0-0-0-0-0-0-0-0-0-0-0-0-0-0-?-    A
E|---------------------------------------------

?Tanto desperdicio, de tanta evolucion, solo?  \
G|----------------------------------------     |
D|----------------------------------------     |
A|-0-0-0-0-0-0-0-0------------------------     |
E|-----------------3-3-3-3-3-3-3-3-1-1-1-1     |
                                               | Parte
?quedo el recuerdo?                            |   B
G|----------------------------------------     |
D|----------------------------------------     |
A|---------0-0-0-0-0-0-0-0-0-0-0-0-0-0-0-0     |
E|-0-0-0-0--------------------------------     /

Repite parte B. Despues:

                           (2 veces)                                 \
?y al despertar solo pude encontrarme con esto?                      |
G|----------------------------------------------------------------|  |
D|----------------------------------------------------------------|  |
A|---------------------------------0-0-0-0-0-0-0-0-0-0-0-0-0-0-0-0|  |
E|-1-1-1-1-1-1-1-1-0-0-0-0-0-0-0-0--------------------------------|  |
                                                                     | Parte
                          (2 veces)                                  |   C
?arañas y ratas tan solo encontre an la noche?                       |
G|----------------------------------------------------------------|  |
D|----------------------------------------------------------------|  |
A|-5-5-5-5-5-5-5-5-3-3-3-3-1-1-1-1-5-5-5-5-5-5-5-5-5-5-5-5-5-5-5-5|  |
E|----------------------------------------------------------------|  /

Repite parte A, B (2 veces),C, A. Despues:

1:54
            (4 veces)
G|-------------------------------|---------------------------------------------
D|-------------------------------|---------------------------------------------
A|-2-2--5-4-4---5------5-4--5--4-|-0-0-0-0-0-0-0-0-0-0-0-0-0-0-0-0-0-0-0-0-0-?-
E|----------------3-3------------|---------------------------------------------

2:21

Repite parte B (2 veces), C, A, B (2 veces), C, A. Despues:

Final
     (3 veces)
G|----------------|-----------------------------
D|----------------|-----------------------------
A|-------------2-3|------3-------3-------3------
E|-2--3--4---5----|-2|2|2---2|2|2---2|2|2---2---

x|x : tocar las dos notas consecutivamente rápido por Ej. 2|2

Arañas y ratas (JAF-Pappo)

Tanto desperdicio, de tanta evolución,
sólo quedó el recuerdo;
basta de lujuria, basta de estupidez,
el péndulo está en movimiento.

Y al despertar sólo pude encontrarme con esto,
y yo que pensaba que todos estabamos de acuerdo.

Arañas y ratas tan sólo encontré en la noche,
arañas y ratas tan sólo encontré en la noche.

Hace mucho tiempo que estoy parado aquí,
mirando hacia el infinito;
tratando de encontrarle alguna solución,
y estamos hundiéndonos lo mismo.

Y una docena de perros me mira los dientes,
y casi un millón de personas se caen al abismo.

Arañas y ratas tan sólo encontré en la noche,
arañas y ratas tan sólo encontré en la noche.

Girando y girando un día me encontré
viajando hacia Transilvania;
y en una pesadilla llegué a la conclusión,
había que hacerlo distinto.

Y la segunda marea me mueve la tierra,
y el hombre que mira los trenes se ríe de nosotros.

Arañas y ratas tan sólo encontré en la noche,
arañas y ratas tan sólo encontré en la noche.

Mientras su musica se siga tocando y escuchando el carpo jamas morira,
vivira eternamente en la memoria de todos.
Suggest correction
Creating personal tab
Creating personal tab
You can edit any tab online and save it as your Personal.

You can edit, replace or remove any tab part or add personal notes – all changes will be seen only by you.

Personal tabs can be accessed anytime from any device, even offline.
Learn more »
Give kudos to tab author, rate the tab!
1 2 3 4 5
comments
print report bad tab
guest
Wanna post a correction for this tab? Suggest correction