Oops, an error
Loading. Please wait.

Días Buenos Y Malos tab

by Riff
47 views 1 this week
no commentswrite comment
1 2 3 4 5
3 more votes to show rating
add to favorites
×
Save as Personal and add changes to this tab that will be seen only by you. Learn more ›
×
You can save this tab as Personal to edit and correct it or add notes. All changes will be seen only by you. Learn more »
launch autoscroll
font size
0
reset
how to read this tab
guitar tuner
edit
Autoscroll
slow
fast
+/-
esc
set tempo
stop
Intro: bata x4
       B  C  D  B x2

E
Ahora que estoy muy lejos del camino,
E
Ahora que estoy muy solo bajo el sol;
A
Nada me parece imposible, no, no, no...
E
E  B   D    A  A G    E
Días buenos y malos hay!

Hay veces que no puedo comprenderlo,
Me paro y veo las aves al pasar;
No me preocupará mi suerte, no...

E  B   D    A    A G  E B   D    A    A G
Días buenos y malos hay!

Bata x4

SOLO
G   Bb   G   Bb Bb   x4
E  G F#  E   G   G   x4
G   Bb   G   Bb Bb   x4
E  G F#  E   G   G   x4
B  C  D  B   yeite

e:-----------------------------------
B:-----2-----------------------------
G:--------4--2-----------------------
D:-----------------5--4--2---2-------
A:-----------------------------------
E:---------------------------0-------

Ahora me voy de viaje conmigo mismo,
En realidad no sé muy bien adónde voy;
no le daré mucha importancia, no, no, no...

E  B   D    A    A G  E B   D    A    A G
Días buenos y malos hay!
E  B   D    A    A G  E
Días buenos y malos hay!

Riff sobre E y A

E
     b   t   b   t   b    t    b    t     (b: bombo, t:tambor)
e:---------------------------------------
B:---------------------------------------
G:---------------------------------------
D:------------------------4----4----5----
A:---2-------2--------2------------------
E:---0-------0--------0------------------

E
     B   t   B   t   B    t    B    t
e:---------------------------------------
B:---------------------------------------
G:---------------------------------------
D:-------------------4----4----5---------
A:---2-------2---------------------------
E:---0-------0---------------------------

A
     B   t   B   t   B    t    B    t
e:---------------------------------------
B:---------------------------------------
G:------------------------4----4----5----
D:---2-------2--------2------------------
A:---0-------0--------0------------------
E:---------------------------------------

A
     B   t   B   t   B    t    B    t
e:---------------------------------------
B:---------------------------------------
G:-------------------4----4----5---------
D:---2-------2---------------------------
A:---0-------0---------------------------
E:---------------------------------------

            
            
Suggest correction
Creating personal tab
Creating personal tab
You can edit any tab online and save it as your Personal.

You can edit, replace or remove any tab part or add personal notes – all changes will be seen only by you.

Personal tabs can be accessed anytime from any device, even offline.
Learn more »
Give kudos to tab author, rate the tab!
1 2 3 4 5
comments
print report bad tab
guest
Wanna post a correction for this tab? Suggest correction