Oops, an error
Loading. Please wait.

Días Buenos Y Malos bass

by Riff
25 views 1 this week
no commentswrite comment
1 2 3 4 5
3 more votes to show rating
add to favorites
×
Save as Personal and add changes to this tab that will be seen only by you. Learn more ›
×
You can save this tab as Personal to edit and correct it or add notes. All changes will be seen only by you. Learn more »
launch autoscroll
font size
0
reset
guitar tuner
edit
Autoscroll
slow
fast
+/-
esc
set tempo
stop
                            (2 veces)
G|-----------------------------------------------------------------|
D|-----------------------------------------------------------------| Parte
A|-2-2-2-2-2-2-2-2-3-3-3-3-3-3-3-3-5-5-5-5-5-5-5-5-2-2-2-2-2-2-2-2-|   A
E|-----------------------------------------------------------------|

                            (2 veces)
  ?Porque estoy muy lejos del camino?
G|-----------------------------------------------------------------|
D|-----------------------------------------------------------------| Parte
A|-7-7-7-7-7-7-7-7-7-7-7-7-7-7-7-5-7-7-7-7-7-7-7-7-7-7-7-7-7-7-7-7-|   B
E|-----------------------------------------------------------------|

  ?nada me parece imposible, no, no, no?
G|-----------------------------------------------------------------
D|----------------------------------------------------------------- Parte
A|-0-0-0-0-0-0-0-0-0-0-0-0-0-0-0-0-7-7-7-7-7-7-7-7-7-7-7-7-7-7-7-7-   C
E|-----------------------------------------------------------------

  ?dias buenos y malos hay?
G|--------------------------------
D|-2------------------------------
A|----2--5--0-0-0-7---------------
E|--------------------------------

Repite parte B, C. Despues

  ?dias buenos y malos hay?
G|----------------------------------------------------------------
D|-2--------------2-----------------------------------------------
A|----2--5--0-0-0----2--5--0-0-0-7--------------------------------
E|----------------------------------------------------------------

1:12
     (4 veces)       (4 veces)       (4 veces)
G|---------------|---------------|---------------|
D|---------------|---------------|---------------|
A|---------------|----1------1-1-|---------------|
E|-0--3--0---3-3-|-3-----3-------|-0--3--0---3-3-|

Repite parte A (1 vuelta), B, C. Despues:

  ?dias buenos y malos hay, dias buenos y malos hay?
G|------------------------------------------------------
D|-2--------------2--------------2----------------------
A|----2--5--0-0-0----2--5--0-0-0----2--5--0-0-0-7-------
E|------------------------------------------------------

Atencion: La afinacion de este tema esta medio semitono mas grave que
la comun (La 440)

Dias buenos y malos (Pappo)

Ahora que estoy muy lejos del camino,
ahora que estoy muy solo bajo el sol;
nada me parece imposible, no, no, no...

Días buenos y malos hay!

Hay veces que no puedo comprenderlo,
me paro y veo las aves al pasar;
no me preocupará mi suerte, no...

Días buenos y malos hay!

Ahora me voy de viaje conmigo mismo,
en realidad no se muy bien adónde voy;
no le daré mucha importancia, no, no, no...

Días buenos y malos hay!
Días buenos y malos hay!

Mientras su musica se siga tocando y escuchando el carpo jamas morira,
vivira eternamente en la memoria de todos.
Suggest correction
Creating personal tab
Creating personal tab
You can edit any tab online and save it as your Personal.

You can edit, replace or remove any tab part or add personal notes – all changes will be seen only by you.

Personal tabs can be accessed anytime from any device, even offline.
Learn more »
Give kudos to tab author, rate the tab!
1 2 3 4 5
comments
print report bad tab
guest
Wanna post a correction for this tab? Suggest correction