Oops, an error
Loading. Please wait.

El Malo De La Película tab

by Riff
49 views 1 this week
no commentswrite comment
1 2 3 4 5
3 more votes to show rating
add to favorites
×
Save as Personal and add changes to this tab that will be seen only by you. Learn more ›
×
You can save this tab as Personal to edit and correct it or add notes. All changes will be seen only by you. Learn more »
launch autoscroll
font size
0
reset
how to read this tab
guitar tuner
edit
Autoscroll
slow
fast
+/-
esc
set tempo
stop
Intro: Riff 1 + riff 2   (x2)

Oh, oh-oh, oh-oh;
oh, oh-oh, oh-oh.


Riff 1

 B5   A5 B5 D5 B5
e-----------------/--------------------------/
B-----------------/-7s-------------5h7-------/
G-4---2--4--7--4--/-7s-7--4----4h7-----7-4---/
D-4---2--4--7--4--/------------7-------------/
A-2---0--2--5--2--/--------------------------/
E-----------------/--------------------------/


Riff 2

 B5   A5 B5 D5 B5
e-----------------/------------------------/
B-----------------/-7s-------------5h7-----/
G-4---2--4--7--4--/-7s-7--4----4h7-----7---/
D-4---2--4--7--4--/------------7-----------/
A-2---0--2--5--2--/------------------------/
E-----------------/------------------------/

----------------------------------------------------------------------

Parte cantada

Riff 3:
 x: Presionan las cuerdas en F#5 solo al momento de tocar con la pua-

e------------------------------/
B------------------------------/
G----------------------4-4--2v-/
D--4-x-4-x-4-x-4-x-4---4-4--2--/
A--4-x-4-x-4-x-4-x-4---2-2--0--/
E--2-x-2-x-2-x-2-x-2-----------/


Riff 4:

     C#5                C#5-C5
e-------------------------------/
B-------------------------------/
G---4/6-6-6-6-6-6-6-6-6-6-6-(5)-/
D---4/6-6-6-6-6-6-6-6-6-6-6-(5)-/---(B5) Riff 5--
A-0-2/4-4-4-4-4-4-4-4-4-4-4-(3)-/
E-------------------------------/

Con riff 3 (x3) + Riff 4 (x1)

F#5
Otra vez llegó la noche
                    B5  A5
con hambre de sensación,

F#5
mi hamburguesa no promete
         B5  A5
gran acción.

F#5
Nada nuevo se me ocurre
                  B5  A5
para cambiar el dios,

C#5
que me acosa desde chico
                    (C#5-C5)
como una maldición.

----------------------------------------------------------------------

Estribillo: Con riff 5

Riff 5:

  B5      D5    A5     D5 B5   B5       D5    A5         D5   E5
e----------------------------/-------------------------/---------/
B----------------------------/-------------------------/---------/
G-4---4-6-7-7----------7--4--/--4---4-6-7-7------------/-7-7--9--/
D-4---4-6-7-7---7------7--4--/--4---4-6-7-7---7--------/-7-7--9--/
A-2---2-4-5-5---7------5--2--/--2---2-4-5-5---7--------/-5-5--7--/
E---------------5------------/----------------5-5-5-5--/---------/

B5                D5
¿Por qué siempre debo ser
   A5                     D5
el malo de la película?,

B5              D5
no es lo que parece ser,
     A5
sólo soy algo particular.

     D5           E5
No creas en las películas

----------------------------------------------------------------------
Inter 1: Riff 1 + Riff 2

----------------------------------------------------------------------

Con Riff 3 (x3) + Riff 4

F#5
Juro que no sé quién fui,
                 B5  A5
ni estaba esa noche allí;

F#5
y esas rubias sólo eran
       B5  A5
amigas entre sí.

F#5
Yo no tuve nada que ver,
             B5  A5
todo pasó sin querer;
C#5
debió ser alguien muy,
                  (C#5-C5)
muy parecido a mí.

----------------------------------------------------------------------

Estribillo: Con riff 5

B5                D5
¿Por qué siempre debo ser
   A5             E5   D5
el malo de la película?,

B5              D5
no es lo que parece ser,
     A5
sólo soy algo particular.

     D5           E5
No creas en las películas

----------------------------------------------------------------------
Inter 2:  Riff 1 + Riff 2 + Riff 6 (C#5-B5-C#5-E5-C#5)

e--------------------------------------------------/
B--------------------------------------------------/
G-6-6-2-9-6---6-4-6-9-6---6-4-6-9---4-6-9--4-6-9-6-/
D-6-6-2-9-6---6-4-6-9-6---6-4-6-9---4-6-9--4-6-9-6-/
A-4-2-4-7-4---4-2-4-7-4---4-2-4-7---2-4-7--2-4-7-4-/
E--------------------------------------------------/

----------------------------------------------------------------------
Solo:


e--------------------------------/-----------------------
B--------------------------------/-----------------------
G--------------------------------/-----------------------
D----------------------------4---/-----------------------
A-4--4-6-7-4---4-6-7-6---6-7---6-/-----------------------
E--------------------------------/-----------------------

----------------------------------------------------------------------
Estribillo: Con riff 5

B5                D5
¿Por qué siempre debo ser
   A5             E5   D5
el malo de la película?,

B5              D5
no es lo que parece ser,
     A5
sólo soy algo particular.

     D5           E5
No creas en las películas
     D5           E5
No creas en las películas...

----------------------------------------------------------------------

Solo con bateria
Oh, oh-oh, oh-oh;
oh, oh-oh, oh-oh.
Oh, oh-oh, oh-oh;


Inter 3: Riff 1 + riff 2
oh, oh-oh, oh-oh...
Oh, oh-oh, oh-oh;
oh, oh-oh, oh-oh...

----------------------------------------------------------------------
Con riff 3 (x3) + riff 4

Otra vez llegó la noche
con hambre de sensación,
mi programa no promete
gran acción.

Nada nuevo se me ocurre
para cambiar el dios,
que me acosa desde chico
como una maldición.

----------------------------------------------------------------------

Estribillo: Con riff 5

B5                D5
¿Por qué siempre debo ser
   A5             E5   D5
el malo de la película?,

B5              D5
no es lo que parece ser,
     A5
sólo soy algo particular.

     D5           E5      Riff 7
No creas en las películas

Riff 7:
e------------------<12>-/
B-----------------------/
G--6-7-7p6-7p6-7p6------/
D-----------------------/
A-----------------------/
E-----------------------/

No creas en las películas
No creas en las películas
ni en mí!

Fin: B5

            
            
Suggest correction
Creating personal tab
Creating personal tab
You can edit any tab online and save it as your Personal.

You can edit, replace or remove any tab part or add personal notes – all changes will be seen only by you.

Personal tabs can be accessed anytime from any device, even offline.
Learn more »
Give kudos to tab author, rate the tab!
1 2 3 4 5
comments
print report bad tab
guest
Wanna post a correction for this tab? Suggest correction