Oops, an error
Loading. Please wait.

El Malo De La Película bass

by Riff
32 views 1 this week
no commentswrite comment
1 2 3 4 5
3 more votes to show rating
add to favorites
×
Save as Personal and add changes to this tab that will be seen only by you. Learn more ›
×
You can save this tab as Personal to edit and correct it or add notes. All changes will be seen only by you. Learn more »
launch autoscroll
font size
0
reset
guitar tuner
edit
Autoscroll
slow
fast
+/-
esc
set tempo
stop
         (4 veces)
G|------------------------|
D|------------------------| Parte
A|-2---0|2---5---2--------|   A
E|------------------------|

               (4 veces)
?Otra vez llego la noche con hambre?
G|---------------------------------------|
D|---------------------------------------| Parte
A|---------------------------2-2|0-------|   B
E|-2--2--2---2--2--2---2--2--------------|

?que me acosa desde chico como una maldición?
G|--------------------------------------
D|--------------------------------------    Parte
A|-4--4--4---4--4--4---4--4--4---4---4--      C
E|--------------------------------------


?por que siempre debo ser el malo de?                               \
G|-----------------------------------------                         |
D|-----------------------------------------                         |
A|-2--2--2---5--5--5---0--0--0---0--0--0|5-                         |
E|-----------------------------------------                         |
                                                                    |Parte
?no es lo que parece ser, solo?         ?no creerse la pelicula?    |  D
G|----------------------------------------------------------------- |
D|----------------------------------------------------------------- |
A|-2--2--2---5--5--5---0--0--0--0--0--0--0--0--5--5--5---7--------- |
E|--------------------------------------------------------0--0--0-- |
                                                                    /

Repite parte A (2 veces), B, C, D, A (2 veces). Despues:

     (2 veces)
G|-----------------|-----------------------------------------------------------
D|----------2------|-----------------------------------------------------------
A|4---2|4-------4--|-4--4--4---4--4--4---4--4--4---4--4--4---4--4--4---4--4--4-
E|-----------------|-----------------------------------------------------------

G|-----------------------------------------------------------
D|-----------------------------------------------------------
A|-6--6--6---6--6--6-----------------------------------------
E|---------------------4--4--4---4--4--4---4--4--4---4--4--4-

Repite parte B. Despues:

G|-------------------------
D|-------------------------
A|-2------2-----2--2--2--2-
E|-------------------------

?por que siempre debo ser el malo de?
G|-----------------------------------------
D|-----------------------------------------
A|-2--2--2---5--5--5---0--0--0---0--0--0|5-
E|-----------------------------------------

                                                 (2 veces)
?no es lo que parece ser, solo?       ?no creerse la pelicula?
G|-----------------------------------------|-------------------|------------
D|-----------------------------------------|-------------------|------------
A|-2--2--2---5--5--5---0-------------------|-5-------7---------|-2----------
E|-----------------------------------------|----------0--------|------------

Repite parte A (2 veces), B, C, D. Despues:

       (2 veces)
?no creerse la pelicula, ni en mi?
G|-------------------|--------------------------------------------------------
D|-------------------|--------------------------------------------------------
A|-5-------7---------|-2-------------2-------------2-------------2------------
E|----------0--------|--------------------------------------------------------

G|-----------------------------
D|-----------------------------
A|-2-2-2--2-2-2--2--2-2--2-2---
E|-----------------------------

x|x : tocar las dos notas consecutivamente rápido por Ej. 2|0

El malo de la pelicula (Boff-Pappo-Peyronel)

Otra vez llego la noche
con hambre de sensación
mi programa no comete declaración
nada nuevo se me ocurre
para cambiar el guión
que me acosa desde chico
como una maldición

Porque siempre debo ser
el malo de la película
no es lo que parece ser
solo soy algo particular
no creas en las películas

Juro que no se quien fui
estaba esa noche allí
y esas rubias solo eran amigas entre si
yo no tuve nada que ver
todo paso sin querer
debió ser alguien muy muy parecido a mi

Porque siempre debo ser
el malo de la película
no es lo que parece ser
solo soy algo particular
no creas en las películas

Porque siempre debo ser
el malo de la película
no es lo que parece ser
solo soy algo particular
no creas en las películas
no creas en las películas

Otra vez llego la noche
con hambre de sensación
mi programa no comete declaración
nada nuevo se me ocurre
para cambiar el guión
que me acosa desde chico
como una maldición

Porque siempre debo ser
el malo de la película
no es lo que parece ser
solo soy algo particular
no creas en las películas
no creas en las películas
ni em mi!

Mientras su musica se siga tocando y escuchando el carpo jamas morira,
vivira eternamente en la memoria de todos.

            
            
Suggest correction
Creating personal tab
Creating personal tab
You can edit any tab online and save it as your Personal.

You can edit, replace or remove any tab part or add personal notes – all changes will be seen only by you.

Personal tabs can be accessed anytime from any device, even offline.
Learn more »
Give kudos to tab author, rate the tab!
1 2 3 4 5
comments
print report bad tab
guest
Wanna post a correction for this tab? Suggest correction