Oops, an error
Loading. Please wait.

El Marqués Bajo La Luz tab

by Riff
148 views 3 this week
no commentswrite comment
1 2 3 4 5
3 more votes to show rating
add to favorites
×
Save as Personal and add changes to this tab that will be seen only by you. Learn more ›
×
You can save this tab as Personal to edit and correct it or add notes. All changes will be seen only by you. Learn more »
launch autoscroll
font size
0
reset
how to read this tab
guitar tuner
edit
Autoscroll
slow
fast
+/-
esc
set tempo
stop
Intro: La guitarra 1 puntea y la 2 toca los bajos de los acordes
Que se encuentran arriba
Luego sigue con los riff 1 y 2 que estan detallados mas abajo

        C      D/F# G       C     D/F# G       C     D   G
e-----------------------3-2-0--2-3-----------------------3-
B-----3-5-3-------3---3--------------3-------3-5-3-------3-
G-4h5-------5-4-2---4--------------2---4-4h5------5-4-2--0-
D--------------------------------------------------------0-
A----------------------------------------------------------
E----------------------------------------------------------

D/F#   G  E/G#  Am  B   C           D      G
e-------------------2-------------2-3---3-2-
B-3--------5----------4-5-----3-5-----------
G---2-4-4----4-5-5---------4h5--------2-----
D-------------------------------------------
A-------------------------------------------
E-------------------------------------------

D/F#   G  E/G#  Am  B   C           D D/F# G
e-------------------2-------------2-3-------
B-3--------5----------4-5-----3-5-------3---
G---2-4-4----4-5-5---------4h5--------2---4-
D-------------------------------------------
A-------------------------------------------
E-------------------------------------------

        C      D/F# G       C     D/F# G       C     D   G
e-----------------------3-2-0--2-3-----------------------3-x
B-----3-5-3-------3---3--------------3-------3-5-3-------3-x
G-4h5-------5-4-2---4--------------2---4-4h5------5-4-2--0-x
D--------------------------------------------------------0-x
A----------------------------------------------------------x
E----------------------------------------------------------x

Riff 1:

  E5 D5 E5          E5 D5 E5
e----------------------------
B----------------------------
G----------------------------
D-9--7--9-----------9--7--9--
A-7--5--7-----------7--5--7--
E---------3-5-6-7------------

Riff 2:

  E5 D5 E5
e-------------------------------------------------------------------
B-------------------------------------------------------------------
G-------------------------------------------------------------------
D-9--7--9----------9--7--9------------------9--7--9-----------------
A-7--5--7----------7--5--7---------5--------7--5--7---------5-------
E---------3-5-6-7----------3-5/6/7---7-5-3----------3-5/6/7---7-5-3-

Sigue con:

Riff 1 x2
Riff 2 x1

E5
Donde esta el Marques
B5
Yo me veo los pies
       D5
Yo me veo los pies
         A5   Riff 3
Bajo la luz

Riff 3:
   D5  A5
e------------
B------------
G------------
D--7---------
A--5--7-7-7--
E-----5-5-5--

E5
Todos piensan que si
B5
Nadie dice que no
    D5
Y afirman con su cabeza
          A5  Riff 3
Su estupidez

Riff 1 x1
Riff 2 x1


1° Solo: (E5-B5-D5-A5 + Riff 3) x2

Riff 1 x1
E5
E5-D5-E5 x8


2° Solo: E5-D5-E5 x34
Sigue:(E5-B5-D5-A5 + Riff 3) x3
       Riff 3 x3


Riff 1 x1
Riff 2 x1
E5-B5-D5-A5 + Riff 3

E5
Donde esta el Marques
B5
Yo me veo los pies
       D5
Yo me veo los pies
         A5   Riff 3
Bajo la luz

Riff 1 x1
Riff 2 x1

E5
Todos piensan que si
B5
Nadie dice que no
    D5
Y afirman con su cabeza
          A5  Riff 3 x4
Su estupidez

Fin:
Riff 1 x2
Riff 2 x1

AGUANTE LA DEL TERMO BAHIA BLANCA!!!

            
            
Suggest correction
Creating personal tab
Creating personal tab
You can edit any tab online and save it as your Personal.

You can edit, replace or remove any tab part or add personal notes – all changes will be seen only by you.

Personal tabs can be accessed anytime from any device, even offline.
Learn more »
Give kudos to tab author, rate the tab!
1 2 3 4 5
comments
print report bad tab
guest
Wanna post a correction for this tab? Suggest correction