Oops, an error
Loading. Please wait.

Héroes Del Asfalto bass

by Riff
31 views 3 this week
no commentswrite comment
1 2 3 4 5
3 more votes to show rating
add to favorites
×
Save as Personal and add changes to this tab that will be seen only by you. Learn more ›
×
You can save this tab as Personal to edit and correct it or add notes. All changes will be seen only by you. Learn more »
launch autoscroll
font size
0
reset
guitar tuner
edit
Autoscroll
slow
fast
+/-
esc
set tempo
stop
Esta es la VERSION FINAL revisada y corregida del tema.
Habia un error del riff del principio y de otras partes.

                                    ?cambios, cambios??
                  2 veces                    2 veces
G|----------|-----------------|------------------------------------|
D|----------|-----------------|------------------------------------|
A|----------|-------------5---|-----------------------5------------|
E|-0-2-5-77-|-0-2-5-77------5-|-0-2-5-7-5--7-5-7-5-577--7-5--7-5-7-|
?o un turbocompresor??
      4 veces
G|-----------------|
D|-----------------|
A|-------------5---|
E|-0-2-5-77------5-|
 ?Y yo, que sigo siendo tan vil?
G|---------------------------------------------------------
D|---------------------------------------------------------
A|----------------------------------353--------------------
E|-5-3-3335--3-3335--3-3335--3-3335?----5-3-3335?-3-3335-3-
?Quiero saber, por que no quieres venir?
G|---------------------------------------------------------------
D|---------------------------------------------------------------
A|----------------------------------------353--------------------
E|-2-3-4-5-3-3335--3-3335--3-3335--3-3335?----5-3-3335?-3-3335-3-
?A conocer, tu propio mundo interior?
G|---------------------------------------------------------------
D|---------------------------------------------------------------
A|----------------------------------------353--------------------
E|-2-3-4-5-3-3335--3-3335--3-3335--3-3335?----5-3-3335?-3-3335-3-
(empieza el solo de guitarra)
      6 veces
G|-----------------|
D|-----------------|
A|-------------5---|
E|-0-2-5-77------5-|
                         3 veces
G|--------------------------------------------------------------|
D|--------------------------------------------------------------|
A|----------------------------------------353-------------------|
E|-2-3-4-5-3-3335--3-3335--3-3335--3-3335?----5-3-3335?-3-3335-3|
                                            2 veces
G|--------------------------------|------------------------------|
D|--------------------------------|------------------------------|
A|5--5-5-5-5-5-5-53--3-3-3-3-3-3-3|3-------3-------3---------353-|
E|--------------------------------|--555555--555555--55555555----|

                                            2 veces
G|--------------------------------|------------------------------|
D|--------------------------------|------------------------------|
A|5--5-5-5-5-5-5-53--3-3-3-3-3-3-3|3-------3-------3---------353-|
E|--------------------------------|--555555--555555--55555555----|
                         ?cambios, cambios??
       2 veces                    2 veces
G|-----------------|------------------------------------|
D|-----------------|------------------------------------|
A|-------------5---|-----------------------5------------|
E|-0-2-5-77------5-|-0-2-5-7-5--7-5-7-5-577--7-5--7-5-7-|
?o un turbocompresor??
      4 veces
G|-----------------|
D|-----------------|
A|-------------5---|
E|-0-2-5-77------5-|
     ?Y yo, que sigo siendo tan vil?
G|---------------------------------------------------------------
D|---------------------------------------------------------------
A|----------------------------------------353--------------------
E|-2-3-4-5-3-3335--3-3335--3-3335--3-3335?----5-3-3335?-3-3335-3-
 ?Quiero saber, por que no quieres venir?
G|---------------------------------------------------------------
D|---------------------------------------------------------------
A|----------------------------------------353--------------------
E|-2-3-4-5-3-3335--3-3335--3-3335--3-3335?----5-3-3335?-3-3335-3-
?A conocer, tu propio mundo interior?
G|---------------------------------------------------------------
D|---------------------------------------------------------------
A|----------------------------------------353--------------------
E|-2-3-4-5-3-3335--3-3335--3-3335--3-3335?----5-3-3335?-3-3335-3-

G|--------------------------------------------------|
D|-------------------------------575----------------|
A|---------7-5-557--5-557--5-557-----7-5-557--5-555-|
E|-2h3-2-0------------------------------------------|
                                                      Final
G|------------------------------------------------|-------------|
D|------------------------------------------------|-------75----|
A|--------------------------353-------------------|-----7---7-0-|
E|-5-3-3335--3-3335--3-3335-----5-3-3335-3-3335-3-|-3h5---------|

Nota: cuando pongo por ejemplo 3335 significa que cada traste
se toca rapido
h: hammer on (ligado)

Heroes del asfalto (Riff)

Cambios, cambios necesitamos, cambios, cambios
Cambios, cambios necesitamos, cambios, cambios
O un turbo compresor, ahora podre violar las reglas

Y yo, que sigo siendo tan vil
Quiero saber, por que no quieres venir
A conocer, tu propio mundo interior

Cambios, cambios necesitamos, cambios, cambios
Cambios, cambios necesitamos, cambios, cambios
O mi turbo compresor, nadie podra seguirme de cerca

Y yo, que sigo siendo tan vil
Quiero saber, por que no quieres venir
A conocer, tu propio mundo interior

Mientras su musica se siga tocando y escuchando el carpo jamas morira,
vivira eternamente en la memoria de todos...
e-mail: zarathustra4321@

            
            
Suggest correction
Creating personal tab
Creating personal tab
You can edit any tab online and save it as your Personal.

You can edit, replace or remove any tab part or add personal notes – all changes will be seen only by you.

Personal tabs can be accessed anytime from any device, even offline.
Learn more »
Give kudos to tab author, rate the tab!
1 2 3 4 5
comments
print report bad tab
guest
Wanna post a correction for this tab? Suggest correction