Oops, an error
Loading. Please wait.

Maquinación bass

by Riff
115 views 1 this week
no commentswrite comment
1 2 3 4 5
3 more votes to show rating
add to favorites
×
Save as Personal and add changes to this tab that will be seen only by you. Learn more ›
×
You can save this tab as Personal to edit and correct it or add notes. All changes will be seen only by you. Learn more »
launch autoscroll
font size
0
reset
guitar tuner
edit
Autoscroll
slow
fast
+/-
esc
set tempo
stop
G|--------------
D|--------------
A|-0------0-3-5-
E|--------------

                 (2 veces)
G|-------------------------------------------| Parte
D|-------------------------------------------|   A
A|-0--0-0-0-0--0--0-0-0-0--0--0-0-0-0--0-3-5-|
E|-------------------------------------------|

       (2 veces)                           (2 veces)
?Hoy decidimos retomar?           ?maquinación?
G|------------------|--------------------------------------------------|Parte
D|------------------|--------------------------------------------------|  B
A|-0-0-0-0-0-0-0-0?-|-3-----3-----3-0-3--0-0-0-0-0-0-0-0-0-0-0-0-0-0-0-|
E|------------------|--------------------------------------------------|

Repite parte A y B. Despues:

G|-------------------------------------------
D|-------------------------------------------
A|-0--0-0-0-0--0--0-0-0-0--0--0-0-0-0--0-3-5-
E|-------------------------------------------

G|----------------------------------------
D|----------------------------------------
A|-0--0-0-0-0--0--0-0-0-0--0--0-0-0-0--0--
E|---------------------------------------3

Durante el solo   (2 veces)
G|--------------------------------------|
D|--------------------------------------|
A|--------------------------------------|
E|-0--0-0-0-0--0--0-0-0-0-?-7-7-7-7-7---|

Repite parte A. Despues:

Repite parte B y A. Despues:

Final                (8 veces)
G|-------------------------------------------------------|
D|-----7-10--5h7-7----7-10--5h7-7----7-10--5h7-7---------|
A|-0-0------------0-0------------0-0-------------0-------|
E|-------------------------------------------------------|

h: hammer on (ligado)

Maquinación (Pappo - Michel)

Hoy decidimos retomar
algo de identidad,
descansa en el camino
tu aburrida modernidad.

Nos vuelven de los muros,
los ecos de una oscura maquinación;
queremos seguir distintos,
queremos agitar instintos de insatisfacción.

Hoy decidimos que ya es hora
de empezar a estar,
ya muere de repente la mania
de disimular.

Nos vuelven de los muros,
los ecos de una oscura maquinación;
queremos seguir distintos,
queremos agitar instintos de insatisfacción.

Hoy decidimos la caída
de tu falsedad,
tu código de humano ya ha quedado
fuera de actualidad.

Nos vuelven de los muros,
los ecos de una oscura maquinación;
queremos seguir distintos,
queremos agitar instintos de insatisfacción

Mientras su musica se siga tocando y escuchando el carpo jamas
morira, vivira eternamente en la memoria de todos

            
            
Suggest correction
Creating personal tab
Creating personal tab
You can edit any tab online and save it as your Personal.

You can edit, replace or remove any tab part or add personal notes – all changes will be seen only by you.

Personal tabs can be accessed anytime from any device, even offline.
Learn more »
Give kudos to tab author, rate the tab!
1 2 3 4 5
comments
print report bad tab
guest
Wanna post a correction for this tab? Suggest correction