Oops, an error
Loading. Please wait.

Nesecitamos Mas Acción bass

by Riff
55 views 1 this week
no commentswrite comment
1 2 3 4 5
3 more votes to show rating
add to favorites
×
Save as Personal and add changes to this tab that will be seen only by you. Learn more ›
×
You can save this tab as Personal to edit and correct it or add notes. All changes will be seen only by you. Learn more »
launch autoscroll
font size
0
reset
guitar tuner
edit
Autoscroll
slow
fast
+/-
esc
set tempo
stop
   x3
G|-----|------------------------------------------------------------------|
D|-----|------------------------------------------------------------------|
A|-----|------5-4---5-4-7------5-4---5-47-----5-4---5-4-7-----5-4---5-47--|
E|-0-0-|-3-0-0---000---0--3-0-0---000----3-0-0---000-----3-0-0---000----3-|
?Yo me pregunto que estoy??        ??Estoy parado mirando a todos??
G|-----------------------------------------------------------------
D|-----------------------------------------------------------------
A|-------------------5-4---5-4-7------------------------5-4---5-47-
E|-00000000000000000----000-----3-0-0-00000000000000000----000-----
?Como quisiera encontrale??
G|-------------------------------------------------------------------|
D|----------7-5-75-75-7-7-7-7-7-5-75---------------------------------|
A|-----------------------------------75--------5-4-7------5-4---5-47-|
E|-5--5-5-5----------------------------0-0-0-0----0--3-0-0---000-----|
?Necesito acción?         ?acción,acción, accion
G|----------------------------------------------|
D|----------------------------------------------|
A|--5--------------5--------------5-5-----5-----|
E|-------5----0---------5----0-----5-5-0---5-0--|

G|----------------------------------------------------------------|
D|----------------------------------------------------------------|
A|---------5-4-7------5-4---5-47------5-4---5-4-7-----5-4---5-47--|
E|-0-0-0-0----0--3-0-0---000-----3-0-0---000-----3-0-0---000----3-|
?Hay 2343 ??                      ??Formas de leer en esta  pared ??
G|-----------------------------------------------------------------
D|-----------------------------------------------------------------
A|-------------------5-4---5-4-7------------------------5-4---5-47-
E|-00000000000000000----000-----3-0-0-00000000000000000----000-----
?Los relojes de la iglesia??
G|-------------------------------------------------------------------|
D|----------7-5-75-75-7-7-7-7-7-5-75---------------------------------|
A|-----------------------------------75--------5-4-7------5-4---5-47-|
E|-5--5-5-5----------------------------0-0-0-0----0--3-0-0---000-----|
?Necesito acción?         ?acción,acción, acción  acción,acción, acción?
G|-----------------------------------------------------------|
D|-----------------------------------------------------------|
A|--5--------------5--------------5-5-----5-------5-5-----5--|
E|-------5----0---------5----0-----5-5-0---5-0-----5-5-0---5-|
                                    x4              x4
G|---------------------------|-------------|-------------------|
D|---------------------------|---------5---|-------------------|
A|---------------------------|-------5---0-|-------------------|
E|--7----5-7----5-7----5-7---|5-7----------|-0-0-0-0-0-0-0-3-0-|
?Yo me pregunto que estoy??        ??Estoy parado mirando a todos??
G|-----------------------------------------------------------------
D|-----------------------------------------------------------------
A|-------------------5-4---5-4-7------------------------5-4---5-47-
E|-00000000000000000----000-----3-0-0-00000000000000000----000-----
?Como quisiera encontrale??
G|-------------------------------------------------------------------|
D|----------7-5-75-75-7-7-7-7-7-5-75---------------------------------|
A|-----------------------------------75--------5-4-7------5-4---5-47-|
E|-5--5-5-5----------------------------0-0-0-0----0--3-0-0---000-----|
?Necesito acción?                  x2                     Final
G|---------------------------|--------------|------------|-----|
D|---------------------------|--------------|------------|-----|
A|--5-----------5------------|-5-5-----5----|-5-5-----5--|-----|
E|-----5----0--------5----0--|--5-5-0---5-0-|--5-5-0---5-|-3-0-|

Necesitamos mas acción (Riff)

Yo me pregunto,
qué estoy haciendo aquí;
estoy parado,
mirando a todos lados, gris.
Cómo quisiera encontrarle la solución...
Necesito acción, necesito acción;
acción, acción; acción!

Hay dos mil trescientas
cuarenta y tres,
formas de leer,
en esta pared.
Los relojes de la iglesia marcan las tres...
Necesito acción, necesito acción;
acción, acción; acción!
acción, acción; acción!

Yo me pregunto,
qué estoy haciendo aquí;
estoy parado,
mirando a todos lados, gris.
Cómo quisiera encontrarle la solución...
Necesito acción, necesito acción;
acción, acción; acción!
acción, acción; acción!
acción, acción; acción!

Mientras su musica se siga tocando y escuchando el carpo jamas morira,
vivira eternamente en la memoria de todos...
Aquellos bajistas que le guste la musica de Pappo me pueden escribir al
e-mail: zarathustra4321@

            
            
Suggest correction
Creating personal tab
Creating personal tab
You can edit any tab online and save it as your Personal.

You can edit, replace or remove any tab part or add personal notes – all changes will be seen only by you.

Personal tabs can be accessed anytime from any device, even offline.
Learn more »
Give kudos to tab author, rate the tab!
1 2 3 4 5
comments
print report bad tab
guest
Wanna post a correction for this tab? Suggest correction