Oops, an error
Loading. Please wait.

No Puedo Soportalo Más bass

by Riff
16 views 3 this week
no commentswrite comment
1 2 3 4 5
3 more votes to show rating
add to favorites
×
Save as Personal and add changes to this tab that will be seen only by you. Learn more ›
×
You can save this tab as Personal to edit and correct it or add notes. All changes will be seen only by you. Learn more »
launch autoscroll
font size
0
reset
guitar tuner
edit
Autoscroll
slow
fast
+/-
esc
set tempo
stop
                                       ?basta ya?
G|------------------------------------------------
D|------------------------------------------------
A|-0-0-0-0-0-0-0-0-0-0-0-0-0-0-0-0-0-0-0-0-0-0-0?-
E|------------------------------------------------

                   (3 veces)
           ?no puedo soportarlo mas, basta ya?
G|------------------------------------------------|
D|-----------------------------7------------------|
A|---------------5--5-5-5-5-5-5---5--0--0-0-0-0-0-|
E|-3--3-3-3-3-3-----------------------------------|

           ?no puedo soportarlo mas?
G|---------------------------------------------
D|---------------------------------------------
A|---------------5--5-5-5-5-5-5-5-5-5-5-5-5-5-5
E|-3--3-3-3-3-3--------------------------------

Repite todo lo de arriba 3 veces.


Atencion: La afinacion de este tema esta medio semitono mas grave que
la comun (La 440)


Boff no puedo soportarlo mas (Pappo)

Magia negra y un enfermo mental,
de nada sirve, todo sigue igual;
confusiones y contradicción,
y mucha falta de comprensión.

Basta ya, no puedo soportarlo más...

Un anciano que perdió el amor,
y un intrépido que canta rock,
dos heladeras y un televisor,
y mucha falta de comprensión.

Basta ya, no puedo soportarlo más...


Mientras su musica se siga tocando y escuchando el carpo jamas morira,
vivira eternamente en la memoria de todos.

            
            
Suggest correction
Creating personal tab
Creating personal tab
You can edit any tab online and save it as your Personal.

You can edit, replace or remove any tab part or add personal notes – all changes will be seen only by you.

Personal tabs can be accessed anytime from any device, even offline.
Learn more »
Give kudos to tab author, rate the tab!
1 2 3 4 5
comments
print report bad tab
guest
Wanna post a correction for this tab? Suggest correction