Oops, an error
Loading. Please wait.

Que Es Un Tulipán tab

by Riff
43 views 1 this week
no commentswrite comment
1 2 3 4 5
3 more votes to show rating
add to favorites
×
Save as Personal and add changes to this tab that will be seen only by you. Learn more ›
×
You can save this tab as Personal to edit and correct it or add notes. All changes will be seen only by you. Learn more »
launch autoscroll
font size
0
reset
how to read this tab
guitar tuner
edit
Autoscroll
slow
fast
+/-
esc
set tempo
stop
INTRO:
                      D5-D5    C5   A5      D5   C5    A5
e-|-0-0-0-0-0-0-0-0-0-0-0|-0-0-0-0-|0-0-0-0-0-0-0-0-0-0-0-0-0-0-0-|
B-|-5-5-5-5-5-5-5-5-5-5-5|-5-5-5-5-|5-5-5-5-5-5-5-5-5-5-5-5-5-5-5-|
G-|----------------------|---------|------------------------------|
D-|----------------------|---------|------------------------------|
A-|----------------------|---------|------------------------------|
E-|----------------------|---------1------------------------------|
     3 VECES                1º VEZ

RIFF1:

e-|----------|----------|
B-|----------|----------|
G-|-----2----|-----2----|
D-|---4-2-4-2|---4-2-4-2|
A-|--4----4-2|--4----4-2|
E-|-2-----2-0|-2-----2-0|

RIFF 2:
e-|----------|---------|---------|---|
B-|----------|---------|---------|---|
G-|-4-4-4----|-4-2-4---|-4-4-4---|---|
D-|-4-4-4--4-|-4-2-4-4-|-4-4-4-4-|-2-|
A-|-2-2-2--4-|-2-0-2-4-|-2-2-2-4-|-2-|
E-|--------2-|-------2-|-------2-|-0-|

RIFF1

Reina la paz y
LA temperatura
 esta inestable.

RIFF 1

acá en oriente
todo el mundo es diferente
y conversan entre si.

RIFF 2:

Veo pasar
los tristes románticos
ella en sus manos, lleva una flor
adonde irán o en que estarán pensando
yo no lo se...

RIFF 1:
yo voy hasta el final
de este camino que termina en un desierto
y veo que los árboles se alejan
con gran dificultad

RIFF 2:
Quiero saber como he llegado aquí
que averiguarlo no puedo y
en donde vivo yo, no existirán
 ni existen ni existieron.


Punteo..

RIFF 3
e-|---------|
B-|---------|
G-|---------|..4 VECES
D-|-----0---|
A-|-------1-|
E-|-0-3-----|

RIFF 4
e-|-2--------|-2-------|
B-|---5-3-2--|---5-3-2-|
G-|---------2|---------|...7 VECES
D-|----------|---------|
A-|----------|---------|
E-|----------|---------|

RIFF 5
e-|------------|
B-|---------3-2|
G-|-0-2-0-2----|
D-|-0-2-0-2----|--2 VECES
A-|------------|
E-|------------|

RIFF 6
e-|---------2-0|
B-|-0-2-0-2----|
G-|-0-2-0-2----|
D-|------------|--2 VECES
A-|------------|
E-|------------|

RIFF 7
e-|-2--------|-2-------||-2----------|
B-|---5-3-2--|---5-3-2-||---5-3-2----|
G-|---------2|---------||---------2--|
D-|----------|---------||-----------2| 2 VECES
A-|----------|---------||------------|
E-|----------|---------||------------||


RIFF 8
      D5   C5    A5
0-0-0-0-0-0-0-0-0-0-0-0-|
5-5-5-5-5-5-5-5-5-5-5-5-|
------------------------|
------------------------| 2 VECES
------------------------|
------------------------|

RIFF 1
REINA LA paz.  .....

RIFF 3

RIFF 8
      D5   C5    A5
0-0-0-0-0-0-0-0-0-0-0-0-|
5-5-5-5-5-5-5-5-5-5-5-5-|
------------------------|
------------------------| 2 VECES
------------------------|
------------------------|

RIFF 9
       D5  C5   A5
0-0-0-0-0-0-0-0-0-0-0-0-0-0-0|
5-5-5-5-5-5-5-5-5-5-5-5-2-2-2|
-----------------------------|
-----------------------------|- 2 VECES
-----------------------------|
-----------------------------|

RIFF 10
e-|----2-----------|------------|
B-|-3-5-5-3-5-3-0-2|-2-3-2-0-2--|
G-|----------------|------------|  asta el final.
D-|----------------|------------|
A-|----------------|------------|
E-|----------------|------------|


Los héroes son recordados, pero las leyendas nunca mueren,
por eso el carpo y su música nunca se apagaran.

Para consulta sobre este tema o
 hablar un poco de rock and roll,
acá les dejo mi mail  

   ???long live rock and roll???????

            
            
Suggest correction
Creating personal tab
Creating personal tab
You can edit any tab online and save it as your Personal.

You can edit, replace or remove any tab part or add personal notes – all changes will be seen only by you.

Personal tabs can be accessed anytime from any device, even offline.
Learn more »
Give kudos to tab author, rate the tab!
1 2 3 4 5
comments
print report bad tab
guest
Wanna post a correction for this tab? Suggest correction