Oops, an error
Loading. Please wait.

Vértigo Romantico bass

by Riff
49 views 1 this week
no commentswrite comment
1 2 3 4 5
3 more votes to show rating
add to favorites
×
Save as Personal and add changes to this tab that will be seen only by you. Learn more ›
×
You can save this tab as Personal to edit and correct it or add notes. All changes will be seen only by you. Learn more »
launch autoscroll
font size
0
reset
guitar tuner
edit
Autoscroll
slow
fast
+/-
esc
set tempo
stop
0:05
            (6 veces)
?Condicion experimental?
G|-------------------------------|
D|-------------------------------| Parte
A|-------------------------------|   A
E|-0--0--0--------0--0---3--0----|

        (3 veces)
?y no se si soy el mismo? ?quiero hacerlo hasta?
G|------------------4--|-----------------------
D|---------------4-----|----------------------- Parte
A|-2-------------------|--2---2---2---2---2--2-   B
E|---------------------|-----------------------

?vertigo?  ?romantico? ?llega cuando estoy?
G|----------------------------------------
D|--------------------------4-7-----------  Parte
A|-----------------------5-----0-4-7------    C
E|-3--3-0----0-3--3-0---------------0-----

?vertigo?  ?romantico??cuentan los amigos, y yo me encuentro? ?una vez?
G|--------------------------------------------------------------------
D|-------------------------------------------------------------------- Parte D
A|-----------------------5------------------0-------------------------
E|-3--3-0----0-3--3-0-------------------------------------------0-0-3-

?mas?
G|-------------------
D|-------------------
A|-------------------
E|-0-----------------

Repite parte A (4 veces),B, C, D, C (2 veces). Despues:

G|---------------------------------------------------
D|---------------------------------------------------
A|---------------------------------------------------
E|-3--3--3--3--3--3--3--3--3--3--3--3--3--3--3--3--?-

2:32
G|---------------------------------------------------
D|---------------------------------------------------
A|-5--5--5--5--5--5--5--5--5--5--5--5--5--5--5--5--?-
E|---------------------------------------------------

2:42
               (4 veces)
G|-------------------------------------|---------------------------------------
D|----------------------7-7-7----------|---------------------------------------
A|-7-7-7-10-10-10-9-9-9-------10-10-9-9|---------------------------------------
E|-------------------------------------|-0-------------------------------------

Repite parte A (4 veces),B, C, D, C (3 veces). Despues:

                           (2 veces)
G|----------------------|------------|---------------------
D|----------------------|----4-7-----|----4-7--------------
A|----------------------|-5-----0-4-7|-5-----0-4-7-0-------
E|-3--3-0----0-3--3-0---|------------|---------------------

Vertigo romantico (Pappo-Peyronel)
Condición experimental
inyección de adrenalina
por tus piernas asesinas
subiré incondicional

Ya no se si soy el mismo
no me puedo controlar
voy de cabeza hacia el abismo
quiero hacerlo hasta el final
vértigo romántico
llega cuando estoy contigo
vértigo romántico
ya no cuentan los amigos
y yo me cuento entre los vivos
una vez mas...

Hoy, hoy, hoy yo te quiero dar
algo nuevo en que pensar
toda la noche sin parar
hoy, hoy, hoy yo te quiero dar

Condición experimental
inyección de adrenalina
por tus piernas asesinas
subiré incondicional

Ya no se si soy el mismo
no me puedo controlar
voy de cabeza hacia el abismo
quiero hacerlo hasta el final
vértigo romántico
llega cuando estoy contigo
vértigo romántico
ya no cuentan los amigos
y yo me cuento entre los vivos
una vez mas

Mientras su musica se siga tocando y escuchando el carpo jamas morira,
vivira eternamente en la memoria de todos.

            
            
Suggest correction
Creating personal tab
Creating personal tab
You can edit any tab online and save it as your Personal.

You can edit, replace or remove any tab part or add personal notes – all changes will be seen only by you.

Personal tabs can be accessed anytime from any device, even offline.
Learn more »
Give kudos to tab author, rate the tab!
1 2 3 4 5
comments
print report bad tab
guest
Wanna post a correction for this tab? Suggest correction