Oops, an error
Loading. Please wait.

Por Si Mañana tab

49 views 1 this week
no commentswrite comment
1 2 3 4 5
3 more votes to show rating
add to favorites
×
Save as Personal and add changes to this tab that will be seen only by you. Learn more ›
×
You can save this tab as Personal to edit and correct it or add notes. All changes will be seen only by you. Learn more »
launch autoscroll
font size
0
reset
how to read this tab
guitar tuner
edit
Autoscroll
slow
fast
+/-
esc
set tempo
stop
hola a toda la comunidad de lacuerda,
tengo mucho sin colaborar
pero quise subir esta hermosa canción,
que expresa mucho
de lo sincero que se esconde en las
lagrimas de un alma arrepentida.

aprovecho para dedicar
esta canción y su transcripción a mi ex
Mar Mabel Bello, una mujer única
que supo enamorarme tanto para amarla,
aun después de 2 larguísimos años,
y aun mas después que tenga otro hombre
en su corazón....
te amo mar... te amo.. y te amo... ante Dios.


aquí está la canción..

El Intro sale así en la original? (al final de la trascripción
Hay tablaturas de como tocar esta parte con la guitarra
arpegiada con sus notas)

     C            D               Em
E.--------------------------------------5/7---5/7------------.
B.---5--------5--5/7------5---7---7/8--------------7/8-------.
G.------5--7-----------7-------------------------------------.
D.-----------------------------------------------------------.
A.-----------------------------------------------------------.
e.-----------------------------------------------------------.

     C            D               Em
E.--------------------------------------5/7---5/7------------.
B.---5--------5--5/7------5---7---7/8--------------7/8-------.
G.------5--7-----------7-------------------------------------.
D.-----------------------------------------------------------.
A.-----------------------------------------------------------.
e.-----------------------------------------------------------.

     C            D               Em

E.--------------------------------------5/7---5/7------------.
B.---5--------5--5/7------5---7---7/8--------------7/8-------.
G.------5--7-----------7-------------------------------------.
D.-----------------------------------------------------------.
A.-----------------------------------------------------------.
e.-----------------------------------------------------------.

     C            D               G
E.-----------------------------------------------------------.
B.---5--------5--5/7------5---7---7/8------------------------.
G.------5--7-----------7-------------------------------------.
D.-----------------------------------------------------------.
A.-----------------------------------------------------------.
e.-----------------------------------------------------------.


Estrofa 1:
G                                       D
Llevo mucho tiempo intentando no sentir
D                                   C
pero no es nada fácil escapar de ti
                             D            G
He intentado ya de todo pero sigues aquí.
G                                           D
Y es que es algo tan difícil intentar vivir
D                                                 C
cuando estoy con alguien más me acuerdo más de ti
                             D
Ay amor este dolor me quiere hacer morir.
Am                            D
Y que me asegura que mi vida
           D                      Am
Va a soportar un día mas de dolor.
      Am                      D
Y por eso hoy que puedo niña,
D
hoy vengo a regalarte mi confesión.


Coro:
         G                      D
Por si mañana muero sin tu amor
                 C
quiero que sepas hoy, que aún
         G      D  C
sigues siendo mi dolor.
Am          C
Por más que intento voy y vengo,
                    D
quiero pero no te olvido.

         G                      D
Por si mañana muero sin tu amor
                 C
quiero que sepas hoy,
         G
Lo que siento por ti es mucho
D                    C
más fuerte de lo que soy.
          Am
Yo sé que esto tal vez no te importe
C              D
y mucho menos yo
(Silencio)
pero quería decírtelo.

Toca el Intro...


Estrofa 2:
G                                         D
Ya gasté todas mis lágrimas por extrañar,
      D                                  C
Ya perdí toda esperanza y el poder soñar,
                            D
He perdido casi todo, menos mi soledad.

Am          C           D
Y que me asegura que mi vida
Am        C          D
Va a soportar un día más de dolor.
Am         C            D
Y por eso hoy que puedo niña,
Am              C               D
Hoy vengo a regalarte mi confesión.

Coro:
         G                      D
Por si mañana muero sin tu amor
                 C
quiero que sepas hoy, que aún
         G      D  C
sigues siendo mi dolor.
Am          C
Por más que intento voy y vengo,
                    D
quiero pero no te olvido.

         G                      D
Por si mañana muero sin tu amor
                 C
quiero que sepas hoy,
         G
Lo que siento por ti es mucho
D                    C
más fuerte de lo que soy.


----Repite esta parte 2 veces--------
          Am
Yo sé que esto tal vez no te importe
C              D
y mucho menos yo

// Solo quería decírtelo // x 2 (toca como en el intro
                                  y a la tercera termina)


Esa es la canción? es hermosa
de verdad y expresa muchas cosas


Con las notas naturales los cambios
Del intro salen así
(no es ninguna versión acústica oficial
Pero la creé para tocarla
Con una sola guitarra más íntimo y personal
A la hora de dedicarla)

     C            D               Em
E.---0--------0---2-----0h2--------3---3--2--3--2-----.
B.---1---1h3------3---3-------------------------------.
G.---0------------2-----------------------------------.
D.----------------0-----------------------------------.
A.---3------------------------------------------------.
e.---------------------------------0---0-----0--------.

     C            D               Em
E.---0--------0---2-----0h2--------3---3--2--3--2-----.
B.---1---1h3------3---3-------------------------------.
G.---0------------2-----------------------------------.
D.----------------0-----------------------------------.
A.---3------------------------------------------------.
e.---------------------------------0---0-----0--------.

     C            D               Em
E.---0--------0---2-----0h2--------3---3--2--3--2-----.
B.---1---1h3------3---3-------------------------------.
G.---0------------2-----------------------------------.
D.----------------0-----------------------------------.
A.---3------------------------------------------------.
e.---------------------------------0---0-----0--------.

     C            D                G
E.---0--------0---2-----0h2--------3------------------.
B.---1---1h3------3---3------------3------------------.
G.---0------------2----------------0------------------.
D.----------------0-----------------------------------.
A.---3-----------------------------2------------------.
e.---------------------------------3------------------.


esto ultimo Se escucha propio de una versión acústica?
Espero que les guste mi trabajo.
Dudas o Preguntas al respecto de esta transcripción
O cualquier otra cosa
Pueden ubicarme por mi email extranjero_8268@
O mi skype 
Gracias por su tiempo y Éxito con esta bella canción


?Una semana para reunir todo el amor del tiempo.
Para dártelo. Para que Hagas con el
Lo que tú quieras: guardarlo, acariciarlo,
 Tirarlo a la Basura. No sirve, es cierto.
Solo quiero una semana para entender las Cosas,
Porque esto es muy parecido a estar saliendo
De un manicomio para entrar a un Panteón.?

            
            
Suggest correction
Creating personal tab
Creating personal tab
You can edit any tab online and save it as your Personal.

You can edit, replace or remove any tab part or add personal notes – all changes will be seen only by you.

Personal tabs can be accessed anytime from any device, even offline.
Learn more »
Give kudos to tab author, rate the tab!
1 2 3 4 5
comments
print report bad tab
guest
Wanna post a correction for this tab? Suggest correction