Oops, an error
Loading. Please wait.

Canción De Las Pecas tab

46 views 1 this week
no commentswrite comment
1 2 3 4 5
3 more votes to show rating
add to favorites
×
Save as Personal and add changes to this tab that will be seen only by you. Learn more ›
×
You can save this tab as Personal to edit and correct it or add notes. All changes will be seen only by you. Learn more »
launch autoscroll
font size
0
reset
how to read this tab
guitar tuner
edit
Autoscroll
slow
fast
+/-
esc
set tempo
stop
:/SOL RE/FA# SOL/:

   SOL       RE/FA#  SOL
A)  Un artista de pinturas
 SOL#dim        LAm
era de poca estatura
      DO     RE/FA#    SOL
menor que un diente de ajo
        DO     RE/FA#    SOL
no encontraba un buen trabajo.

A)Pues no había un caballete
que sirviera a su tamaño
como pasaban los años
decidió pintar cachetes.


B)      MI          DO            LAm           SI7
e|----------------------------------------------------
B|-------------------5-3---1--0---2-0---4----0--------
G|----------------4-----------------------------------
D|-2-----2-4---5---------------------------------4-4--
A|-------------------3------------0--------------2----
E|-------0--------------------------------------------
   Si un niño se dormí a  se sen ta ba en su bar billa
        MI          DO            LAm           SI7
e|----------------------------------------------------
B|--------------------5--3---1--0-2---0----4---0------
G|-----------------4-----------------------------4-4----
D|-------2--4---5-------------------------------------
A|--------------------3------------0-------------2----
E|-------0--------------------------------------------
 y a la luz de los co cu yos co lo rea ba sus me jillas.

A)El artista cuidadoso
en su profesión tan vieja
no paraba hasta quedarle
las mejillas bien parejas.

A)Y por eso en la mañana
al partir para la escuela
las caritas parecían
un dibujo de acuarelas.

B)Pero qué mala suerte
en una noche de trabajo
un cocuyo conversaba
y el artista se distrajo.

A)Sacudió el pincel mojado
de color brillante rosa
en la cara de una niña
y se despertó pecosa.

        E B G D A E
Sol#dis 4 x 3 4 3 x

            
            
Suggest correction
Creating personal tab
Creating personal tab
You can edit any tab online and save it as your Personal.

You can edit, replace or remove any tab part or add personal notes – all changes will be seen only by you.

Personal tabs can be accessed anytime from any device, even offline.
Learn more »
Give kudos to tab author, rate the tab!
1 2 3 4 5
comments
print report bad tab
guest
Wanna post a correction for this tab? Suggest correction