Oops, an error
Loading. Please wait.

Pensando En Tí tab

16 views 1 this week
no commentswrite comment
1 2 3 4 5
3 more votes to show rating
add to favorites
×
Save as Personal and add changes to this tab that will be seen only by you. Learn more ›
×
You can save this tab as Personal to edit and correct it or add notes. All changes will be seen only by you. Learn more »
launch autoscroll
font size
0
reset
how to read this tab
guitar tuner
edit
Autoscroll
slow
fast
+/-
esc
set tempo
stop
 camara banda esta rola fue sacada de oido
 por su servilleta espero les lata komo
 se oye bueno dice asi.


intro: D-F#m-Bm-E


 e------------------------------------------I
 B--10-10-10-10-10-8-7----------------------I
 G---------------------9--7-7-7-7h9-7-5-----I
 D--------------------------------------8-6-I
 A------------------------------------------I
 E------------------------------------------I

 e------------------------------------------I
 B----------7-7-----7-----7-----10-8-7------I
 G------7-9-----7h9---7h9---7h9--------7----I
 D--7h9-------------------------------------I
 A------------------------------------------I
 E------------------------------------------I


 e------------------------------------------I
 B------------------------------------------I
 G--7-7-7-7h9-7-6---------------------------I
 D-----------------9-7----------------------I
 A------------------------------------------I
 E------------------------------------------I


 D                   F#m
Revolviendo palabras
 Bm                  E

ubicando una historia

         E
hoy quise saber de ti.

D              F#m    Bm
Recordando tus labios no puedo expresar lo

E                D  F#m   Bm   E
que siento yo por ti no no no no

D                F#m          Bm                  E
Pensando en ti, las palabras no existen no puedo decirlo

D                F#m          Bm                  E
Pensando en ti, me envuelvo en un mundo de cosas ideales

          D   F#m     Bm       E
para los dos oh oh, nononono uhhh yeee.


                   SOLO

 e------------------------------------------I
 B--10-10-10-10-10-8-7----------------------I
 G---------------------9--7-7-7-7h9-7-5-----I
 D--------------------------------------8-6-I
 A------------------------------------------I
 E------------------------------------------I

 e------------------------------------------I
 B----------7-7-----7-----7-----10-8-7------I
 G------7-9-----7h9---7h9---7h9--------7----I
 D--7h9-------------------------------------I
 A------------------------------------------I
 E------------------------------------------I


 e------------------------------------------I
 B------------------------------------------I
 G--7-7-7-7h9-7-6---------------------------I
 D-----------------9-7----------------------I
 A------------------------------------------I
 E------------------------------------------I


 camara banda aki la letra cambia pero son las
 mismas notas kualkier duda ahi les va mi correo
 fer_fashon_18@hotm.... solo nenas y banda
 rockanrolera sale banda
 chidos.......

       Att:EL FERCHO
Suggest correction
Creating personal tab
Creating personal tab
You can edit any tab online and save it as your Personal.

You can edit, replace or remove any tab part or add personal notes – all changes will be seen only by you.

Personal tabs can be accessed anytime from any device, even offline.
Learn more »
Give kudos to tab author, rate the tab!
1 2 3 4 5
comments
print report bad tab
guest
Wanna post a correction for this tab? Suggest correction