Oops, an error
Loading. Please wait.

Qué Será De Ti bass

version 1
version 1

Whole song

Interactive

108 views 1 this week
no commentswrite comment
1 2 3 4 5
3 more votes to show rating
add to favorites
×
Save as Personal and add changes to this tab that will be seen only by you. Learn more ›
×
You can save this tab as Personal to edit and correct it or add notes. All changes will be seen only by you. Learn more »
launch autoscroll
font size
0
reset
guitar tuner
edit
Autoscroll
slow
fast
+/-
esc
set tempo
stop
Qué será de ti

VERSO 1
  t=69
G|---------------------------------|---------------------------------|
D|-7-----------7---7-------6-------|-4-----------4---4---------------|
A|---------------------------------|---------------------------------|
E|---------------------------------|---------------------------------|

G|---------------------------------|---------------------------------|
D|---------------------------------|-2-----------2-------------------|
A|-4-----------4---4---------------|-----------------0-------2---4---|
E|---------------------------------|---------------------------------|

G|---------------------------------|---------------------------------|
D|---------------------------------|---------------------------------|
A|-5-----------5---5---------------|-5-----------5---5---------------|
E|---------------------------------|---------------------------------|

G|---------------------------------|---------------------------------|
D|-2-----------2---2---------------|-2-----------2---2---------------|
A|---------------------------------|---------------------------------|
E|---------------------------------|---------------------------------|

VERSO 2

G|---------------------------------|---------------------------------|
D|-7-----------7---7-------6-------|-4-----------4---4---------------|
A|---------------------------------|---------------------------------|
E|---------------------------------|---------------------------------|

G|---------------------------------|---------------------------------|
D|---------------------------------|-2-----------2-------------------|
A|-4-----------4---4---------------|-----------------0-------2---4---|
E|---------------------------------|---------------------------------|

G|---------------------------------|---------------------------------|
D|---------------------------------|---------------------------------|
A|-5-----------5---5---------------|-5-----------5---5---------------|
E|---------------------------------|---------------------------------|

G|---------------------------------|---------------------------------|
D|-2-----------2---2-----------2---|-2-------2-------4-------6-------|
A|---------------------------------|---------------------------------|
E|---------------------------------|---------------------------------|

CORO

G|---------------------------------|---------------------------------|
D|-7---------------7---7-----------|-7---------------7-------6-------|
A|-------------7---------------7---|-------------7-------------------|
E|---------------------------------|---------------------------------|

G|---------------------------------|---------------------------------|
D|-4---------------4---------------|-4---------------4-------2-------|
A|-------------4---------------4---|-------------4-------------------|
E|---------------------------------|---------------------------------|

G|---------------------------------|---------------------------------|
D|-0---------------0---0-----------|---------------------------------|
A|-------------0---------------0---|-2-----------2---0-------0-------|
E|---------------------------------|---------------------------------|

G|---------------------------------|---------------------------------|
D|-2-------2-------4-------6-------|-7---------------7---7-----------|
A|---------------------------------|-------------7---------------7---|
E|---------------------------------|---------------------------------|

G|---------------------------------|---------------------------------|
D|-7---------------7-------6-------|-4---------------4---4-----------|
A|-------------7-------------------|-------------4---------------4---|
E|---------------------------------|---------------------------------|

G|---------------------------------|---------------------------------|
D|-4---------------4-------2-------|-0---------------0---0-----------|
A|-------------4-------------------|-------------0---------------0---|
E|---------------------------------|---------------------------------|

G|---------------------------------|---------------------------------|
D|---------------------------------|-2-------2-------4-------6-------|
A|-2-----------2---0-------0-------|---------------------------------|
E|---------------------------------|---------------------------------|

SOLO

G|---------------------------------|---------------------------------|
D|-7-----------7---7-------6-------|-4-----------4---4---------------|
A|---------------------------------|---------------------------------|
E|---------------------------------|---------------------------------|

G|---------------------------------|---------------------------------|
D|---------------------------------|-2-----------2-------------------|
A|-4-----------4---4-----------4---|-----------------0-------2---4---|
E|---------------------------------|---------------------------------|

G|---------------------------------|---------------------------------|
D|---------------------------------|---------------------------------|
A|-5-----------5---5---------------|-5-----------5---5-----------5---|
E|-----------------------------5---|---------------------------------|

G|---------------------------------|---------------------------------|
D|-2-----------2---2---------------|-2-----------2---2-------4---6---|
A|-----------------------------2---|---------------------------------|
E|---------------------------------|---------------------------------|

VERSO 3

G|---------------------------------|---------------------------------|
D|-7-----------7---7-------6-------|-4-----------4---4---------------|
A|---------------------------------|---------------------------------|
E|---------------------------------|---------------------------------|

G|---------------------------------|---------------------------------|
D|---------------------------------|-2-----------2-------------------|
A|-4-----------4---4---------------|-----------------0-------2---4---|
E|---------------------------------|---------------------------------|

G|---------------------------------|---------------------------------|
D|---------------------------------|---------------------------------|
A|-5-----------5---5---------------|-5-----------5---5---------------|
E|---------------------------------|---------------------------------|

G|---------------------------------|---------------------------------|
D|-2-----------2---2-----------2---|-2-------2-------4-------6-------|
A|---------------------------------|---------------------------------|
E|---------------------------------|---------------------------------|

CORO

G|---------------------------------|---------------------------------|
D|-7---------------7---7-----------|-7---------------7-------6-------|
A|-------------7---------------7---|-------------7-------------------|
E|---------------------------------|---------------------------------|

G|---------------------------------|---------------------------------|
D|-4---------------4---------------|-4---------------4-------2-------|
A|-------------4---------------4---|-------------4-------------------|
E|---------------------------------|---------------------------------|

G|---------------------------------|---------------------------------|
D|-0---------------0-------0-------|---------------------------------|
A|-------------0---------------0---|-2-----------2---0-------0-------|
E|---------------------------------|---------------------------------|

G|---------------------------------|---------------------------------|
D|-2-------2-------4-------6-------|-7---------------7---7-----------|
A|---------------------------------|-------------7---------------7---|
E|---------------------------------|---------------------------------|

G|---------------------------------|---------------------------------|
D|-7---------------7-------6-------|-4---------------4---------------|
A|-------------7-------------------|-------------4---------------4---|
E|---------------------------------|---------------------------------|

G|---------------------------------|---------------------------------|
D|-4---------------4-------2-------|-0---------------0-------0-------|
A|-------------4-------------------|-------------0---------------0---|
E|---------------------------------|---------------------------------|

G|---------------------------------|---------------------------------|
D|---------------------------------|-2-------------------------------|
A|-2-----------2---0-------0-------|---------------------------------|
E|---------------------------------|---------------------------------|

FINAL

G|---------------------------------|---------------------------------|
D|-7---------------7---7-----------|-7---------------7-------6-------|
A|-------------7---------------7---|-------------7-------------------|
E|---------------------------------|---------------------------------|

G|---------------------------------|---------------------------------|
D|-4---------------4---------------|-4---------------4-------2-------|
A|-------------4---------------4---|-------------4-------------------|
E|---------------------------------|---------------------------------|

G|---------------------------------|---------------------------------|
D|-0---------------2---4---6---7---|-9-----------9---7-------7-------|
A|-------------0-------------------|---------------------------------|
E|---------------------------------|---------------------------------|

G|---------------------------------|---------------------------------|
D|-2-------2-------4-------6-------|---F---A---D---E----O---U---T----|
A|---------------------------------|---------------------------------|
E|---------------------------------|---------------------------------|

Cualkier correccion, insultos, mentadas de madre, etc a mi e-mail:
basspm_68@

            
            
Suggest correction
Creating personal tab
Creating personal tab
You can edit any tab online and save it as your Personal.

You can edit, replace or remove any tab part or add personal notes – all changes will be seen only by you.

Personal tabs can be accessed anytime from any device, even offline.
Learn more »
Give kudos to tab author, rate the tab!
1 2 3 4 5
comments
print report bad tab
guest
Wanna post a correction for this tab? Suggest correction