Oops, an error
Loading. Please wait.

Ellos No Imaginan tab

25 views 1 this week
no commentswrite comment
1 2 3 4 5
3 more votes to show rating
add to favorites
×
Save as Personal and add changes to this tab that will be seen only by you. Learn more ›
×
You can save this tab as Personal to edit and correct it or add notes. All changes will be seen only by you. Learn more »
launch autoscroll
font size
0
reset
how to read this tab
guitar tuner
edit
Autoscroll
slow
fast
+/-
esc
set tempo
stop
(intro)
6-|---------------------------------------------------
5-|---------------------------------------------------
4-|---------------------------------------------------
3-|-9-9-----------------------------------------------
2-|-8-8-10-10-10-10-10-10-13-15-13-12-10-12-10-8-8/10-
1-|------8-12--8--8--8--8-12-13-12-10--8-10--8-7-7/8--

6-|------------------------------------------------------------
5-|---------------------------------------------------------------
4-|--------------------------------------------------------------
3-|--------------------------------------------------------------
2-|-10-10-10-13-15-13-10-13-15-13-10-17-15-13-12-17-15-13-15-12
1-|--8--8--8-12-13-12--8-12-13-12--8-15-13-12-10-15-13-12-13-10

5-|---------------------------------------------------------------
4-|-------------------------------------------------------------
3-|------------------------------------------------------------
2-|-10-8-8-----------------------------------------------------
1-|--8-7--7-7-7-7/8-8-8-8/10-10-10-8-7-8-7-5-7-5-3---------------


C             F              C
Solo por cumplirle a la sociedad
    F
le dices orgullosamente al mundo
               G
que estamos casados.

(Coro)
    F               G
La gente no imagina la realidad
    F                      G
el calvario que vivo a tu lado,
    F                   G            C
solo por cumplirle a ellos los 2 mentimos
       Am
nos engañamos.
  F           G
Vivimos en pecado,
  F                    G               F
vivimos en un cuarto frio lleno de mentiras
           C
lleno de maldad.

Ellos no imaginan
                                        Am
que a ti te espera otro hombre en la esquina,
                                     F
que a mi me espera otra mujer ilusionada
                     G
en el cuarto de un hotel.

      F                 G
El te da lo que yo te quedo debiendo,
         F                   G
ella a mi me complace y no me pone peros,
          F                    G
si el te pide caricias se las das de nuevo,
                   F   G                     C
si el te dice te quiero, es un te quiero sincero,
                  F    G              C
si ella me dice te amo, es amor verdadero.

6-|---------------------------------------------------
5-|---------------------------------------------------
4-|---------------------------------------------------
3-|-9-9-----------------------------------------------
2-|-8-8-10-10-10-10-10-10-13-15-13-12-10-12-10-8-8/10-
1-|------8-12--8--8--8--8-12-13-12-10--8-10--8-7-7/8--

6-|------------------------------------------------------------
5-|---------------------------------------------------------------
4-|--------------------------------------------------------------
3-|--------------------------------------------------------------
2-|-10-10-10-13-15-13-10-13-15-13-10-17-15-13-12-17-15-13-15-12
1-|--8--8--8-12-13-12--8-12-13-12--8-15-13-12-10-15-13-12-13-10

5-|---------------------------------------------------------------
4-|-------------------------------------------------------------
3-|------------------------------------------------------------
2-|-10-8-8-----------------------------------------------------
1-|--8-7--7-7-7-7/8-8-8-8/10-10-10-8-7-8-7-5-7-5-3---------------
 F                        G
La gente no imagina la realidad
 F                         G
el calvario que vivo a tu lado,
 F                    G             C
solo por cumplirle a ellos los 2 mentimos
       Am
nos engañamos.
 F            G
Vivimos en pecado,
  F                    G                F
vivimos en un cuarto frio lleno de mentiras
         C
lleno de maldad.


Ellos no imaginan
                                        Am
que a ti te espera otro hombre en la esquina,
                                   F
que a mi me espera otra mujer ilusionada
                     G
en el cuarto de un hotel.

 F                      G
El te da lo que yo te quedo debiendo,
   F                           G
ella a mi me complace y no me pone peros,
      F                        G
si el te pide caricias se las das de nuevo,
                   F    G                    C
si el te dice te quiero, es un te quiero sincero,
                   F   G                C
si ella me dice te amo, es amor verdadero.


pss ahi quedo la rola espero les guste y les sirva..
el requinto pss ahi como pude creo q suena bien
ahi si necesitan un paro con una cancion o dudas...

el_cotan_chido@

            
            
Suggest correction
Creating personal tab
Creating personal tab
You can edit any tab online and save it as your Personal.

You can edit, replace or remove any tab part or add personal notes – all changes will be seen only by you.

Personal tabs can be accessed anytime from any device, even offline.
Learn more »
Give kudos to tab author, rate the tab!
1 2 3 4 5
comments
print report bad tab
guest
Wanna post a correction for this tab? Suggest correction