Oops, an error
Loading. Please wait.

Camarón chords

version 2
version 2

Whole song

23 views 1 this week
no commentswrite comment
1 2 3 4 5
3 more votes to show rating
add to favorites
×
Save as Personal and add changes to this tab that will be seen only by you. Learn more ›
×
You can save this tab as Personal to edit and correct it or add notes. All changes will be seen only by you. Learn more »
launch autoscroll
font size
0
reset
transpose
0
reset
simplify chords
display chords
guitar tuner
edit
Autoscroll
slow
fast
+/-
esc
set tempo
stop
Strumming
There is no strumming pattern for this song yet. and get +5 IQ
intro: 

      (E)            (D)             (A)            (E)
  e:---0--------------2---------------0--------------0-
  b:---0--------------3---------------2--------------0-
  g:---1--------------2---------------2--------------1-
  d:---2------22---2--0------22---2---2------22---2--2-
  a:---2--2~4----4----0--2~4----4-----0--2~4----4----2-
  E:---0--------------0---------------0--------------0-

  E
  Hey camarón
        D           
  por ayá que tal te vá,
         A
  cuando oigo tu voz,
        E
  me pregunto donde estas.
        D    A                 E
  Me pregunto donde estas camarón.

  Ven quédate 
  que tu casa está en mi piel.
  Te podras asomar 
  por mi ojos hasta el mar,
  pero nadie me responde y hasta el sol se va..
  tan solo mi guitarra resonando sin parar.

Coro:
  G      A5
  Hey camarón
        G          A5 
  por ayá que tal te vá,
         G        A5
  cuando oigo tu voz,
         G         A5
  me pregunto donde estas.
  

  
      (E)            (D)             (A)            (E)
  e:---0--------------2---------------0--------------0-
  b:---0--------------3---------------2--------------0-
  g:---1--------------2---------------2--------------1-
  d:---2------22---2--0------22---2---2------22---2--2-
  a:---2--2~4----4----0--2~4----4-----0--2~4----4----2-
  E:---0--------------0---------------0--------------0-
    E
  Y yo

  que no traigo mas que sol
              E7
  y polvo del camino
                      D
  bajo el agua encontré tu corazón
 A                 E
  encontré tu corazón
     D  
  Y vuelvo a la ciudad
          A                           E  
  Y entre bloques de cemento oigo tu voz

Coro:
  
  G      A5
  Hey camarón
        G          A5 
  por ayá que tal te vá,
         G        A5
  cuando oigo tu voz,
         G         A5
  me pregunto donde estas
Suggest correction
Creating personal tab
Creating personal tab
You can edit any tab online and save it as your Personal.

You can edit, replace or remove any tab part or add personal notes – all changes will be seen only by you.

Personal tabs can be accessed anytime from any device, even offline.
Learn more »
Give kudos to tab author, rate the tab!
1 2 3 4 5
comments
print report bad tab
guest
Wanna post a correction for this tab? Suggest correction