Oops, an error
Loading. Please wait.

Cristo Rompió Mis Cadenas tab

by La Roca
60 views 1 this week
no commentswrite comment
1 2 3 4 5
3 more votes to show rating
add to favorites
×
Save as Personal and add changes to this tab that will be seen only by you. Learn more ›
×
You can save this tab as Personal to edit and correct it or add notes. All changes will be seen only by you. Learn more »
launch autoscroll
font size
0
reset
how to read this tab
guitar tuner
edit
Autoscroll
slow
fast
+/-
esc
set tempo
stop
KE ONDA MIS AMIGOS ESPERO QUE LES SEA DE BENDICION TODO LO QUE HAGO
BUENO AHORA LES VOY A MANDAR UNOS TABS. HAY MAS O MENOSDE ESTA ROLA
TAN PRENDIDA QUE EN LO PERSONAL A MI ME ENCANTA.

EMPIEZA ASI....

EMPIZA CON TECLADOS DESPUES DE LOS RUIDOS
LOS ACORDES SON  Am  F   G  SON LOS MISMOS QUE VAN EN
ESTE REQUINTO

E-3-------------3-------------------------3-----------3---------------3-
B---5-3-----3-5---5-3---3-5-5-3-3-----------5-3---3-5---5-3---3-5-5-3--------
G--------5------------5------------2-4-5--------5-----------5--
D------------------------------------------------------
A-------------------------------------------------------
E------------------------------------------------------
 SIGUE
ESTE MISMO REQUINTO JUNTO CON ESTE OTRO

E-------------------------------------------------------
B-5-8-5-3-1---1-1-5-3-1-----------------------------------------------
G-----------2----------------------------------------------
D----------------------------------------------------------
A--------------------------------------------------------
E--------------------------------------------------------

DESPUES ESTE REQUINTO ES EL INTERMEDIO ESCUCHEN BIEN EL DISCO

E-----------------------------3---------------3-3-3-3-3-1-0-1-------------------------------------------------1--------------
B-5-5-3-1-1---1-3-1-0-1-0---5---5-3-1-5-5-3-1-----------------5-3---1---1--1---5-3-1-5-3-1-0-1---1---1---1------5-5-6-3----1---1---1----5-3-1-5-3-1---
G-----------2-------------2---------------------------------------2---2---2--2-----------------2---2---2---2-------------2---2---2---2--------
E------------------------------------------------------------------------------
A------------------------------------------------------------------------------------
E--------------------------------------------------------------------------------

FACILES TODO ES CUESTION DE OIR BIEN EL DISCO Y PONERSE BIEN TRUCHA.
BUENO DIOS LES BENDIGA Y ESPERO QUE ESTO SEA DE BENDICION PARA USTEDES.
Y VIA CRISTO Y YO TAMBIEN......
Suggest correction
Creating personal tab
Creating personal tab
You can edit any tab online and save it as your Personal.

You can edit, replace or remove any tab part or add personal notes – all changes will be seen only by you.

Personal tabs can be accessed anytime from any device, even offline.
Learn more »
Give kudos to tab author, rate the tab!
1 2 3 4 5
comments
print report bad tab
guest
Wanna post a correction for this tab? Suggest correction