Oops, an error
Loading. Please wait.

La Máscara tab

31 views 1 this week
no commentswrite comment
1 2 3 4 5
3 more votes to show rating
add to favorites
×
Save as Personal and add changes to this tab that will be seen only by you. Learn more ›
×
You can save this tab as Personal to edit and correct it or add notes. All changes will be seen only by you. Learn more »
launch autoscroll
font size
0
reset
how to read this tab
guitar tuner
edit
Autoscroll
slow
fast
+/-
esc
set tempo
stop
esta rola esta bien chida esta mi primera rola
 que subo espero que la entiendan
bendiciones y bisiten elmetro
de mi iglecia 
puerta del cielo cozumel
atte:El Benjas
arriba el rockkk
ha el mio 

B----------------------------------------------0---------------
G---------0-----------------0---------------0------0---------0-----------
D------2----2-----------0------0-------2-------------2-----1---------------
A----2---------------2-------------2-3-------------------2-------0-------
E-o-------------2-3------------------------------------------------3-2-0

B---------------------------------------0-----------------------
G-------0----------------0------------0--0---------0--4--5--4-5--2----
D----2----2-----------0-----0-------2------2-----1----4--5--4-5--2--5--4--2
A--2---------------2------------2-3------------2------2--3--2-3--0--5--4--2
Eo------------2-3---------------------------------------------------3--2--0


  -Ex5--G---F#             Ex4       Bx2     Bx2
G------------              -----------4--------4
D-5-----4---2              -2---------4--------4
A-5-----4---2              -2---------2--------2
E-3-----2---0              -0-------------------

E                G     C             B
Caminando por la calle comencé a reflexionar
E                  G       C                  B
Que la vida que yo llevaba ya me empasaba cansar
E             G           C                    B
En la escuela tenia un a forma diferente en el hogar
E                         G        C                      B-C-Bx2 A-G-F#-E
Por que siempre  asiendo cambios  no encuentro la felicidad
E               G           C              B
Ya llego la hora es tiempo de cambiar
E                    G           C                  B
Esta situación que me tiene en esclavitud
E              G              C              B
Me estoy volviendo loco por que no puedo gritar
E                 G                  C                     B-C-Bx2 A-G-F#-E
Que tengo a cristo en mi corazonY que no me averguenso de el??.

Ex5       G        F#
Quetate la mascara
Ex4                 B
que no te deja gritar
Ex5       G        F#
que tienes a cristo en tu corazon
Ex4                         B
Y que no te averguenzas de el
Ex5       G        F#
Quitate la mascara
Ex4           B
 para proclamar
Ex5       G        F#
Que eres un hijo de Dios
Ex4                       B
y que no te arrepientes de el..
Esta parte agarelen la onda escuchenla
A----------------------------------------------2-2-2-
E-----000---333----222--3--000-----333---222--3

chido carnales!!!!!!!!!!!!!!
elrequinto se los devo
Suggest correction
Creating personal tab
Creating personal tab
You can edit any tab online and save it as your Personal.

You can edit, replace or remove any tab part or add personal notes – all changes will be seen only by you.

Personal tabs can be accessed anytime from any device, even offline.
Learn more »
Give kudos to tab author, rate the tab!
1 2 3 4 5
comments
print report bad tab
guest
Wanna post a correction for this tab? Suggest correction