Oops, an error
Loading. Please wait.

Algo De Suerte tab

85 views 6 this week
no commentswrite comment
1 2 3 4 5
2 more votes to show rating
add to favorites
×
Save as Personal and add changes to this tab that will be seen only by you. Learn more ›
×
You can save this tab as Personal to edit and correct it or add notes. All changes will be seen only by you. Learn more »
launch autoscroll
font size
0
reset
how to read this tab
guitar tuner
edit
Autoscroll
slow
fast
+/-
esc
set tempo
stop
Intro

E --------------0---------------------------0-------------------0----------------------------0-----------
B ------------0--------0--------0--------0--------------------0----------0--------0--------0-------------
G ----------6--------4--------2--------1-------------------11----------9--------7--------6---------------
D --------7--------6-------4--------2--------------------12---------11--------9--------7-----------------
A -------------------------------------------------------------------------------------------------------
E -------------------------------------------------------------------------------------------------------


E ---------7-----------7--------7-------7----------------------------------------0-------0---------------
B ------------0---------0--------0-----------0---------------0--------1--------0---0---------------------
G ---------------6--------6--------6-----------6----------4---------2--------1---------------------------
D ---------7----------------------------7---------------6---------2--------2-----------------------------
A -------------------------------------------------------------------------------------------------------
E ----------------------------------------------------------------------------------------0--------------


E --------12-----------12---------12------------12----------------------------------------0-------0-------
B ------------0------------0-----------0------------0-----------------0--------0--------0---0-------------
G ---------------11----------11----------11------------11-----------9--------7--------6-------------------
D --------12------------------------------------12---------------11--------9--------7---------------------
A ------------------------------------------------------------------------------------------------0-------
E --------------------------------------------------------------------------------------------------------


       En este cuadro de boxeos interminables            en esta tienda de seres humanos desechables                                                                       
E --------------0-------------------------------0----------------0---------------------------------0------
B ------------0--------0--------0--------0--------------------0----------0--------0--------0--------------
G ----------6--------4--------2--------1-------------------11----------9--------7--------6----------------
D --------7--------6-------4--------2--------------------12---------11--------9--------7------------------
A -------------------------------------------------------------------------------------------------0------
E ----------------------------------------------0---------------------------------------------------------


       en el resumen de arquetipos conjugados           de tiempos duros explotando en todos lados                                                                      
E --------------0-------------------------------0----------------0---------------------------------0-------
B ------------0--------0--------0--------0--------------------0----------0--------0--------0---------------
G ----------6--------4--------2--------1-------------------11----------9--------7--------6-----------------
D --------7--------6-------4--------2--------------------12---------11--------9--------7-------------------
A -------------------------------------------------------------------------------------------------0-------
E ----------------------------------------------0----------------------------------------------------------
 

      A veces siento que se     cae esa coraza que me mantiene   seguro de moverme en todos  lados y entonces  pienso
E ------------0------------0-------------12--------------12------------0------------0---------------2--------------2---
B ---------0----0-------0----0---------0----0----------0----0--------0---0-------0----0---------3----3---------3---3---
G ------2-------------2--------------11--------------11-------------1------------1-------------2---------------2-------
D ----4-------------4-------------12--------------12--------------2------------2-------------0---------------0---------
A ---------------------------------------------------------------------------------------------------------------------
E ---------------------------------------------------------------------------------------------------------------------


rasgueo con acoredes

que he corrido con algo de suerte en estas
 A      x----       x----   E
         -4--        -2--    
         ----        ----        
         -6--        -4--
         ----        ----           
        x----       x----           


paginas dibujadas por la muerte yo pienso
D         E               A


que has corrido con algo de suerte en estas
 A    x----          x----   E
       -4--           -2--    
       ----           ----        
       -6--           -4--
       ----           ----           
      x----          x----

paginas dibujadas por la muerte 
D           E              A


Algo de suerte

En este cuadro de boxeos interminables 
en esta tienda de seres humanos desechables
en el resumen de arquetipos conjugados
de tiempos duros explotando en todos lados

a veces siento que se cae esa coraza 
que me mantiene seguro de moverme en todos lados

y entonces pienso que he corrido con algo de suerte
en estas paginas dibujadas por la muerte
yo pienso que has corrido con algo de suerte
en estas paginas dibujadas por la muerte 

se repite todo
Suggest correction
Creating personal tab
Creating personal tab
You can edit any tab online and save it as your Personal.

You can edit, replace or remove any tab part or add personal notes – all changes will be seen only by you.

Personal tabs can be accessed anytime from any device, even offline.
Learn more »
Give kudos to tab author, rate the tab!
1 2 3 4 5
comments
print report bad tab
guest
Wanna post a correction for this tab? Suggest correction