Oops, an error
Loading. Please wait.

Ama De Casa Un Poco Triste tab

82 views 3 this week
no commentswrite comment
1 2 3 4 5
3 more votes to show rating
add to favorites
×
Save as Personal and add changes to this tab that will be seen only by you. Learn more ›
×
You can save this tab as Personal to edit and correct it or add notes. All changes will be seen only by you. Learn more »
launch autoscroll
font size
0
reset
how to read this tab
guitar tuner
edit
Autoscroll
slow
fast
+/-
esc
set tempo
stop
                       Proporcionada para ATAME

                              de

                               TAVO SITE


                        AMA DE CASA UN POCO TRISTE


En esta canción se utilizan varias ampliaciones en algunos acordes
por lo tanto cuanco aparezca un caracter extraño en cada acorde sabrás
que tienes que ampliar el acorde (es algo tedioso pero la canción esta muy bien).


ACORDES que necesitas:

    G     G&    D     D&     C     C&     Am     Am7   Am add6    F    FMaj7    Em    Em7   Emadd 6

e---3-----3-----2-----3------0-----3------0--------0------0-------1-------1------0-----0------0------
b---0-----3-----3-----3------1-----5------1--------1------1-------1-------1------0-----0------0------
g---0-----4-----2-----2------0-----5------2--------0------0-------2-------2------0-----0------0------
d---0-----5-----0-----0------2-----5------2--------2------4-------3-------2------2-----0------0------
a---2-----5-----0-----0------3-----3------0--------0------0-------3-------3------2-----2------4------
e---0-----3------------------3-----3------0--------0------0-------1-------1------0-----0------0------


Introducción dos veces:


|      |      |      |      |
|---G---|---D---|---C---|---D---|
|      |      |      |      |

|      |      |        |       |      
|---G---|---D---|--Am-C--|---G---|
|      |      |       |       |          

|            |          
|--C-FMAJ7-C-|          
|            |         
    


 

G          D         C           D            G
Pasas tus días siempre a traves de la ventana,

            D                 Am   C       G     
soñando el tiempo barriendo aveces con desganas.


e---2---2---2---3----                
b---3---3---3---0----                
g---0---0---0---0----                
d---0---2---4---0----                
a---------------2----                
e---x---x---x---3----   G


            D      C        D            G
Ya muy temprano has preparado el desayuno

        F            C&              D   D&   D   
y ahora tienes que apurarlos uno a uno.


e---2---2---2---3----                
b---3---3---3---0----                
g---0---0---0---0----                
d---0---2---4---0----                
a---------------2----                
e---x---x---x---3----      G


          D         C           D            G
Ir al mercado para pelear con el marchante

            D                 Am   C       G    
volver cargada con mil trabajos por delante


e---2---2---2---3----                
b---3---3---3---0----                
g---0---0---0---0----                
d---0---2---4---0----                
a---------------2----                
e---x---x---x---3----      G


          D         C           D          G
Pararte un poco para observar la primavera,

        F            C&              D   D&   D    
sabiendo bien que tu reino no está afuera.


e---2---2---2--
b---3---3---3--
g---0---0---0--
d---0---2---4--
a--------------
e---x---x---x--


Am          Am7             Am5         Am         D (en quinto traste)
Dejar tus manos entre los platos y las penas


e---10---10---12---12-------
b---10---10---10---10-------
g---11---11---11---11-------
d----0----0----0----0-------
a----0----0----0----0-------
e---------------------------  (repites esto varias veces)

Em        Em7  Em5        Em7                A
buscar ansiosa la hora de la telenovela


e---0---0---0----2----3\2---0---0/2----
b---2---2---2----3----3-----3---3------
g---2---2---2----2----2-----2---2------
d---2---0---0----0----0-----0---0------
a---0---2---4----0----0-----0---0------
e--------------------------------------


e-------------3-------
b-------------0-------
g-------------0-------
d---0--2--4---0-------
a-------------2-------
e-------------3-------   G


          D         C           D            G
Salir al patio y platicar con la vecina

            D                 Am   C       G    
de algunos chismes de su marido en la cantina


e---2---2---2---3----                
b---3---3---3---0----                
g---0---0---0---0----                
d---0---2---4---0----                
a---------------2----                
e---x---x---x---3----     G


          D         C           D            G
Bañar los niños, pues llegan hechos una pena

        F            C&              D   D&   D    
y luego tienes que ir a preparar la cena


e---2---2---2---3----                
b---3---3---3---0----                
g---0---0---0---0----                
d---0---2---4---0----                
a---------------2----                
e---x---x---x---3----    G


          D         C           D            G
Juegan los días a que tu eres un dibujo

            D                 Am   C       G    
de algún recuerdo que interpretaste como embrujo


          D         C           D            G
Ahora cansada, talves bastante fastidiada

        F            C&              D   D&   D    
llega el momento en que no quieres saber ya nada


Am            Am7  Am5            Am7            D  (en quinto traste)
Cruzas las horas con horizontes siempre iguales


e---10---10---12---12-------
b---10---10---10---10-------
g---11---11---11---11-------
d----0----0----0----0-------
a----0----0----0----0-------
e---------------------------  (repites esto varias veces)

Em        Em7  Em5        Em7                A
te atrapa el tiempo con sus achaques y sus males


e---0---0---0----2----3\2---0---0/2----
b---2---2---2----3----3-----3---3------
g---2---2---2----2----2-----2---2------
d---2---0---0----0----0-----0---0------
a---0---2---4----0----0-----0---0------
e--------------------------------------


e-------------3-------
b-------------0-------
g-------------0-------
d---0--2--4---0-------
a-------------2-------
e-------------3-------   G


         D         C           D        G
Pasan tus días entre la casa y la familia

           D                 Am   C       G    
ves con orgullo como a crecido tu Cecilia


         D         C           D            G
Y nunca supiste que hubo un tiempo que perdiste

        F            C&              D   D&   D    
para ser mas que ama de casa un poco triste.


-------------------------------------
transcripción por Gustavo Sánchez M.
-------------------------------------

yo escribí la versión en tablatura de 'rancho electrónico'

por si la checaste, pero ya cambié mi e-mail , ahora es

         tavogus@

para cualquier sugerencia o petición de otra rola
-------------------------------------

      Visita la  venti--ÚNICA--  página de la red de
                                   
                           Rodrigo Gónzalez

                 
      
-------------------------------------

            
            
Suggest correction
Creating personal tab
Creating personal tab
You can edit any tab online and save it as your Personal.

You can edit, replace or remove any tab part or add personal notes – all changes will be seen only by you.

Personal tabs can be accessed anytime from any device, even offline.
Learn more »
Give kudos to tab author, rate the tab!
1 2 3 4 5
comments
print report bad tab
guest
Wanna post a correction for this tab? Suggest correction