Oops, an error
Loading. Please wait.

Rock En Vivo tab

91 views 3 this week
no commentswrite comment
1 2 3 4 5
3 more votes to show rating
add to favorites
×
Save as Personal and add changes to this tab that will be seen only by you. Learn more ›
×
You can save this tab as Personal to edit and correct it or add notes. All changes will be seen only by you. Learn more »
launch autoscroll
font size
0
reset
how to read this tab
guitar tuner
edit
Autoscroll
slow
fast
+/-
esc
set tempo
stop
Intro:

e|---------------------------------------------------
b|----0---0---0---0---0---0---0---0---0---0---0------
g|---0---0---0---0---0---0---0---0---0---0---0-------
D|--2---4---5---7---5---7---9---7---5---4---2--------
A|----------------------------------------------4----

O si prefieren pueden tocar la P. 04 en vez de lo de
arriba
y despues de esto va la P. 01


P. 02
No falta nada en la estructura de smog
P. 02
los zapatos viejos y las caras oxidadas
P. 03
las máquinas rugen feroces

sobre Antonio Caso
P. 04
Sombras que entran y salen oliendo a cerveza
P. 02
Clavado en una idea volteo a ver si aterrizas
P. 02
me asomo al reloj y es mas que un calendario
P. 03
Sospecho que hay afuera

solo hay desconocidos
P. 04                                           P. 05
Figuras de ceda que pasan sin decir tu nombre,  no!


(coro)
No hay manera de regresar la cinta

tu amor fue un rock en vivo, 2, 3 manchas de tinta

un requinto de jazz fugaz e improvisado

una imagen en el aire de un pintor,  apresurado.


P. 02
Ya todo es esquema desde que partío tu barco
P. 02
maquinas sistemas estructuras sin embargo
P. 03
Un acorde vuela,

me platica de una isla
P. 04
y un navegante herido parar tras tus ojos.(***)

P. 02
Traigo en mi entraña un pedazo de aerolito
P. 02
me doy algo de maña pero no me comunico
P. 03
Un extraño me ha dicho

que navegas lejos
P. 04                                          P. 05
En busca de tierras lejanas, calor y azulejos,  no!

[coro]  P.01 Y ACABA EN "D"


PARTE 01

    D     Bm7/9   G     F#m    Em7
e|---------------------------------------------------------------
b|---------------------------------------------------------------
g|---2------2-------------------------0--------------------------
D|-0---0--4---4------0-----4--------0---0---2-4-5-4-2-4-2-0-2-0--
A|-----------------2-----4------2---------0---------------------4
E|---------------3-----2------0---0------------------------------


PARTE 02

    D     Bm7/9   G     F#m    Em7
e|-----------------------------------------------------
b|-----------------------------------------------------
g|---2------2-------------------------0----------------
D|-0---0--4---4------0-----4--------0---0---2-4-2---2--
A|-----------------2-----4------2---------0-------0----
E|---------------3-----2------0---0--------------------


PARTE 03

Los siguientes acordes van arpegeados

  G   F#m   Em

                    /   e|-0--2--3---
  G   F#m   Em(**)      g|-0--0--0---
                       A|-2--3--5---


PARTE 04

e|--0--2--3--0--3--0--2--0--0--0--0--0---
b|---------------------------------------
g|--------0--2--0--2--4--2--0------------
D|--2--4-----------------------4--2------
A|-----------------------------------4---
E|---------------------------------------


PARTE 05

D   G   E  A  F#m  D  G  E  (G  F#m  Em  A)

Los acordes entre parentesis van arpegeados, los demás
rasgueados


(***)en esta parte arpegear un rato "D"
(**)aqui tocar en corto el bajo del acorde y enseguida
lo que sigue


 Bm7/9    Em7
e|-2-------0-
b|-2-------0-
g|-2-------0-
D|-4-------0-
A|-2-------2-
E|-X-------0-


Escuchen la rolita varias veces hasta que se cansen y
practiquenla
bastante para que puedan asignarles los tiempos
adecuados a la
gritada y a la tocada.


--------------NOTA MUY IMPORTANTE------------------
Solo les he marcado los puros bajos de los acordes en
las
PARTES 1 y 2, (es que me da flojera anotar la
tablatura
completa) lo que quiere decir que mientras toquen las
PARTES 1 y 2 deberán tocar todas las cuerdas
que corresponden a cada acorde. Si tienen alguna duda,
por favor,
ponganse en contacto.

            
            
Suggest correction
Creating personal tab
Creating personal tab
You can edit any tab online and save it as your Personal.

You can edit, replace or remove any tab part or add personal notes – all changes will be seen only by you.

Personal tabs can be accessed anytime from any device, even offline.
Learn more »
Give kudos to tab author, rate the tab!
1 2 3 4 5
comments
print report bad tab
guest
Wanna post a correction for this tab? Suggest correction