Oops, an error
Loading. Please wait.

Tiempo De Híbridos tab

94 views 1 this week
no commentswrite comment
1 2 3 4 5
3 more votes to show rating
add to favorites
×
Save as Personal and add changes to this tab that will be seen only by you. Learn more ›
×
You can save this tab as Personal to edit and correct it or add notes. All changes will be seen only by you. Learn more »
launch autoscroll
font size
0
reset
how to read this tab
guitar tuner
edit
Autoscroll
slow
fast
+/-
esc
set tempo
stop
*espero y les agrade va para los cuates del bacho 15
de su vale el yefry


*intro:
e|----2--2--2--3--3--3--5--5--5-|
a|----3--3--3--5--5--5--7--7--7-|
d|------------------------------|
g|--0---------------------------|
b|------------------------------|
E|------------------------------|

e|---3--3--3--5--5--5--7--7--7-|
a|---5--5--5--7--7--7--9--9--9-|
d|-----------------------------|
g|-0---------------------------|
b|-----------------------------|
E|-----------------------------|

e|---5--5--5--7--7--7--9--9--9--|
a|---7--7--7--9--9--9--10-10-10-|
d|------------------------------|
g|-0----------------------------|
b|------------------------------|
E|------------------------------|


*aui va de rapido a lento...
e|-9--9--9--9---7--7--7--7---5--5--5--|
a|--10-10-10-10--9--9--9--9---7--7----|
d|------------------------------------|
g|------------------------------------|
b|------------------------------------|
E|------------------------------------|

e|-7--7--7--7---5--5--5--5---3--3--3--|
a|--9--9--9--9---7--7--7--7---5--5----|
d|------------------------------------|
g|------------------------------------|
b|------------------------------------|
E|------------------------------------|

e|-5--5--5--5---3--3--3--3---2--2--|
a|--7--7--7--7---5--5--5--5---3--3-|
d|---------------------------------|
g|---------------------------------|
b|---------------------------------|
E|---------------------------------|


*sigue con.
e|-2-3-2-|
a|-3---3-|
d|-2---2-|
g|-0---O-|
b|-------|
E|-------|


*suena nadamas los agordes 1 ves y lentamente..
D
  Era un gran rancho electrónico
G
  con nopales automáticos,
D
  con sus charros cibernéticos
     A
y sarapes de neón.


e|-2--2--2--3--3--3--5--3--2-|
a|-3--3--3--5--5--5--7--5--3-|
d|---------------------------|
g|---------------------------|
b|---------------------------|
E|---------------------------|


*no dejes de rasgear
D
Era un gran pueblo magnético
G
   con Marías ciclotrónicas,
D
   tragafuegos supersónicos
    A
y su campesino sideral.


*EL RASGUEO ES MUY LENTO
                                  D
Era un gran tiempo de híbridos.
                       G
Era Medusa anacrónica,
                A
una rana con sinfónica


*AQUI EL RASGUEO  CAMBIA
      A        G      D
en la campechana mental.
D
Era un gran sabio rupéstrico
G
de un universo doméstico
D
Pitecantropus atómico
            A
era, líder universal (PARAS UN POCO)


D
Había frijoles poéticos
            G
y también  garbanzos matemáticos,
D
en los pueblos esqueléticos
                         A
con sus  guías de pedernal. (PARAS UN POCO)

D
Era un gran tiempo de híbridos.
G
De salvajes y científicos,
D
de panzones que estaban tísicos


      A        G      D
en la campechana mental,
      A             G       D
en la vil penetración cultural
      A      G   D
en el agandalle transnacional,
      A      G   D
en lo oportuno norteño-imperial,
              A G D
en la desfachatez empresarial,
             A  G  D
en el despiporre intelectual,
         A     G       D
en la vulgar falta de identidad.


e|---2-2-2-3-3-3-5-5-5-|
a|---3-3-3-5-5-5-7-7-7-|
d|---------------------|
g|-0-------------------|
b|---------------------|
E|---------------------|

e|-7-7-7-9--9--9--|
a|-9-9-9-10-10-10-|
d|----------------|
g|----------------|
b|----------------|
E|----------------|

*PARA EL FINAL RASGEA (A) CONSICUTIVAMENTE
Y DESPUES 1 VES (Am) y 2 veses (D) Y FIN


DISFRUNTENLA. UN SALUDO A
LOS PELOS DEL PEYOTE Y A MI VANDA
PD:ARRIVA LA LLERVA

            
            
Suggest correction
Creating personal tab
Creating personal tab
You can edit any tab online and save it as your Personal.

You can edit, replace or remove any tab part or add personal notes – all changes will be seen only by you.

Personal tabs can be accessed anytime from any device, even offline.
Learn more »
Give kudos to tab author, rate the tab!
1 2 3 4 5
comments
print report bad tab
guest
Wanna post a correction for this tab? Suggest correction