Oops, an error
Loading. Please wait.

Tiempos Híbridos tab

47 views 1 this week
no commentswrite comment
1 2 3 4 5
3 more votes to show rating
add to favorites
×
Save as Personal and add changes to this tab that will be seen only by you. Learn more ›
×
You can save this tab as Personal to edit and correct it or add notes. All changes will be seen only by you. Learn more »
launch autoscroll
font size
0
reset
how to read this tab
guitar tuner
edit
Autoscroll
slow
fast
+/-
esc
set tempo
stop
Justamente, en estos momentos 
En que la confucion reina terriblemente 
En la admosfera, como
Extraños microbios venidos 
De otras galaxias que mandan
Mensajes telepáticos 
Haciendo ver realidades que
No corresponden a las dimensiones adeudas.
El profeta del Nopal se presenta 
De una manera u otra
Aventando sus cotorreos desde 
el año de los mil novecientos ochenta y cuatro
y en sus híbridas visiones del rocanrol mexicano 
Me dijo; un día, de uniricos sueños y, ahun que 
típicos símbolos que tenia que recetarle
por las trompas de eustaquio a todo él 
Personal, estos mensajes del Profeta del Nopal.


6      --------------------------------------------------------------------------------------------------------------------------------------
5      --------------------------------------------------------------------------------------------------------------------------------------
4      --------------------------------------------------0-----------------------------------------------------------------------------------
3      --------------------------------------------------------------------------------------------------------------------------------------
2      ----3------3------5-----5------7-------7--------------3-------3-------5-------5-------7---------7--------8-------8-------10---
1      ----2------2------3-----3------5-------5--------------2-------2-------3-------3-------5---------5--------7-------7--------9----


6       -------------------------------------------------------------------------------------------------------------------------------------
5       -------------------------------------------------------------------------------------------------------------------------------------
4       -------------------------------------------------------------------------------------------------------------------------------------
3       -------------------------------------------------------------------------------------------------------------------------------------
2       ---10---------12-----------------12------------------12----------------------10----------------------10---------------10------
1       ----9-------------------10------------------10--------------------10----------------------9---------------------9--------------9


6      --------------------------------------------------------------------------------------------------------------------------------------
5      --------------------------------------------------------------------------------------------------------------------------------------
4      -----------------------------------------------------------------0--------------------------------------------------------------------
3      ----------------------------------------------------------------------2------------------------------------------2-------------------
2      --9----------------9----------------9---------------------------------------3----------------------------------3--------------------
1      -----------7----------------7----------------7---------------------------------------2-(3)*---------2---------2-------------------

* se le da el efecto con el tres


espero que le entiendan ya que es mi primer tablatura, no escribo la cancion ya que se encuentra ya en el A.T.A.M.E

            
            
Suggest correction
Creating personal tab
Creating personal tab
You can edit any tab online and save it as your Personal.

You can edit, replace or remove any tab part or add personal notes – all changes will be seen only by you.

Personal tabs can be accessed anytime from any device, even offline.
Learn more »
Give kudos to tab author, rate the tab!
1 2 3 4 5
comments
print report bad tab
guest
Wanna post a correction for this tab? Suggest correction